ISO-10303-21;
HEADER;
FILE_DESCRIPTION (( 'STEP AP203' ),
    '1' );
FILE_NAME ('Web Model 63207_14816.step',
    '2020-10-07T17:34:22',
    ( '' ),
    ( '' ),
    'SwSTEP 2.0',
    'SolidWorks 2018',
    '' );
FILE_SCHEMA (( 'CONFIG_CONTROL_DESIGN' ));
ENDSEC;

DATA;
#1 = FACE_OUTER_BOUND ( 'NONE', #61, .T. ) ;
#2 = DIRECTION ( 'NONE',  ( 1.000000000000000000, 0.0000000000000000000, 0.0000000000000000000 ) ) ;
#3 = CARTESIAN_POINT ( 'NONE',  ( 10.00000000000000000, 1.224646799147353256E-15, 2.000000000000000000 ) ) ;
#4 = DIRECTION ( 'NONE',  ( 1.000000000000000000, 0.0000000000000000000, 0.0000000000000000000 ) ) ;
#5 = APPROVAL_PERSON_ORGANIZATION ( #145, #156, #124 ) ;
#6 = DATE_TIME_ROLE ( 'creation_date' ) ;
#7 = PERSON_AND_ORGANIZATION ( #125, #103 ) ;
#8 = CC_DESIGN_PERSON_AND_ORGANIZATION_ASSIGNMENT ( #126, #69, ( #92 ) ) ;
#9 = DESIGN_CONTEXT ( 'detailed design', #81, 'design' ) ;
#10 = COORDINATED_UNIVERSAL_TIME_OFFSET ( 5, 0, .BEHIND. ) ;
#11 = CC_DESIGN_APPROVAL ( #112, ( #83 ) ) ;
#12 = AXIS2_PLACEMENT_3D ( 'NONE', #38, #165, #108 ) ;
#13 = DIRECTION ( 'NONE',  ( -0.0000000000000000000, -0.0000000000000000000, -1.000000000000000000 ) ) ;
#14 = APPROVAL_DATE_TIME ( #171, #112 ) ;
#15 = CARTESIAN_POINT ( 'NONE',  ( 0.0000000000000000000, 0.0000000000000000000, 2.000000000000000000 ) ) ;
#16 = PERSON_AND_ORGANIZATION_ROLE ( 'classification_officer' ) ;
#17 = CC_DESIGN_PERSON_AND_ORGANIZATION_ASSIGNMENT ( #149, #167, ( #83 ) ) ;
#18 = APPROVAL_DATE_TIME ( #48, #156 ) ;
#19 = FACE_OUTER_BOUND ( 'NONE', #140, .T. ) ;
#20 = EDGE_CURVE ( 'NONE', #139, #158, #172, .T. ) ;
#21 = ORIENTED_EDGE ( 'NONE', *, *, #20, .F. ) ;
#22 = CARTESIAN_POINT ( 'NONE',  ( 0.0000000000000000000, 0.0000000000000000000, 2.000000000000000000 ) ) ;
#23 = DIRECTION ( 'NONE',  ( -1.000000000000000000, 0.0000000000000000000, 0.0000000000000000000 ) ) ;
#24 = VERTEX_POINT ( 'NONE', #102 ) ;
#25 =( LENGTH_UNIT ( ) NAMED_UNIT ( * ) SI_UNIT ( .MILLI., .METRE. ) );
#26 = AXIS2_PLACEMENT_3D ( 'NONE', #15, #13, #53 ) ;
#27 = DIRECTION ( 'NONE',  ( 0.0000000000000000000, 0.0000000000000000000, 1.000000000000000000 ) ) ;
#28 = PERSON_AND_ORGANIZATION_ROLE ( 'creator' ) ;
#29 = EDGE_CURVE ( 'NONE', #60, #24, #160, .T. ) ;
#30 = AXIS2_PLACEMENT_3D ( 'NONE', #22, #132, #62 ) ;
#31 = LOCAL_TIME ( 13, 34, 22.00000000000000000, #142 ) ;
#32 = EDGE_LOOP ( 'NONE', ( #170, #174, #134, #100 ) ) ;
#33 = LOCAL_TIME ( 13, 34, 22.00000000000000000, #73 ) ;
#34 = CC_DESIGN_DATE_AND_TIME_ASSIGNMENT ( #86, #6, ( #138 ) ) ;
#35 = VECTOR ( 'NONE', #87, 1000.000000000000000 ) ;
#36 = EDGE_LOOP ( 'NONE', ( #50, #59, #143, #67 ) ) ;
#37 = AXIS2_PLACEMENT_3D ( 'NONE', #55, #135, #23 ) ;
#38 = CARTESIAN_POINT ( 'NONE',  ( 0.0000000000000000000, 0.0000000000000000000, 2.000000000000000000 ) ) ;
#39 = MANIFOLD_SOLID_BREP ( 'Extrude1', #111 ) ;
#40 =( NAMED_UNIT ( * ) SI_UNIT ( $, .STERADIAN. ) SOLID_ANGLE_UNIT ( ) );
#41 =( NAMED_UNIT ( * ) PLANE_ANGLE_UNIT ( ) SI_UNIT ( $, .RADIAN. ) );
#42 = APPROVAL_DATE_TIME ( #80, #49 ) ;
#43 = APPLICATION_PROTOCOL_DEFINITION ( 'international standard', 'config_control_design', 1994, #81 ) ;
#44 = AXIS2_PLACEMENT_3D ( 'NONE', #117, #27, #4 ) ;
#45 = APPROVAL_PERSON_ORGANIZATION ( #147, #49, #105 ) ;
#46 = AXIS2_PLACEMENT_3D ( 'NONE', #91, #65, #137 ) ;
#47 = EDGE_CURVE ( 'NONE', #24, #60, #133, .T. ) ;
#48 = DATE_AND_TIME ( #107, #157 ) ;
#49 = APPROVAL ( #89, 'UNSPECIFIED' ) ;
#50 = ORIENTED_EDGE ( 'NONE', *, *, #47, .F. ) ;
#51 = CC_DESIGN_PERSON_AND_ORGANIZATION_ASSIGNMENT ( #7, #150, ( #138 ) ) ;
#52 = PLANE ( 'NONE',  #46 ) ;
#53 = DIRECTION ( 'NONE',  ( -1.000000000000000000, 0.0000000000000000000, 0.0000000000000000000 ) ) ;
#54 = MECHANICAL_CONTEXT ( 'NONE', #68, 'mechanical' ) ;
#55 = CARTESIAN_POINT ( 'NONE',  ( 0.0000000000000000000, 0.0000000000000000000, 2.000000000000000000 ) ) ;
#56 = CC_DESIGN_PERSON_AND_ORGANIZATION_ASSIGNMENT ( #75, #16, ( #128 ) ) ;
#57 = DATE_TIME_ROLE ( 'classification_date' ) ;
#58 = APPROVAL_STATUS ( 'not_yet_approved' ) ;
#59 = ORIENTED_EDGE ( 'NONE', *, *, #144, .T. ) ;
#60 = VERTEX_POINT ( 'NONE', #79 ) ;
#61 = EDGE_LOOP ( 'NONE', ( #63, #21 ) ) ;
#62 = DIRECTION ( 'NONE',  ( 1.000000000000000000, 0.0000000000000000000, 0.0000000000000000000 ) ) ;
#63 = ORIENTED_EDGE ( 'NONE', *, *, #110, .F. ) ;
#64 = CARTESIAN_POINT ( 'NONE',  ( 0.0000000000000000000, 0.0000000000000000000, 0.0000000000000000000 ) ) ;
#65 = DIRECTION ( 'NONE',  ( 0.0000000000000000000, 0.0000000000000000000, 1.000000000000000000 ) ) ;
#66 = DIRECTION ( 'NONE',  ( 0.0000000000000000000, 0.0000000000000000000, 1.000000000000000000 ) ) ;
#67 = ORIENTED_EDGE ( 'NONE', *, *, #131, .F. ) ;
#68 = APPLICATION_CONTEXT ( 'configuration controlled 3d designs of mechanical parts and assemblies' ) ;
#69 = PERSON_AND_ORGANIZATION_ROLE ( 'design_owner' ) ;
#70 = CALENDAR_DATE ( 2020, 7, 10 ) ;
#71 = LINE ( 'NONE', #175, #123 ) ;
#72 = ADVANCED_FACE ( 'NONE', ( #19 ), #151, .T. ) ;
#73 = COORDINATED_UNIVERSAL_TIME_OFFSET ( 5, 0, .BEHIND. ) ;
#74 = ADVANCED_BREP_SHAPE_REPRESENTATION ( 'Web Model 63207_14816', ( #39, #99 ), #155 ) ;
#75 = PERSON_AND_ORGANIZATION ( #125, #103 ) ;
#76 = ORIENTED_EDGE ( 'NONE', *, *, #47, .T. ) ;
#77 = DIRECTION ( 'NONE',  ( 0.0000000000000000000, 0.0000000000000000000, 1.000000000000000000 ) ) ;
#78 = LOCAL_TIME ( 13, 34, 22.00000000000000000, #98 ) ;
#79 = CARTESIAN_POINT ( 'NONE',  ( -10.00000000000000000, 0.0000000000000000000, 2.000000000000000000 ) ) ;
#80 = DATE_AND_TIME ( #113, #152 ) ;
#81 = APPLICATION_CONTEXT ( 'configuration controlled 3d designs of mechanical parts and assemblies' ) ;
#82 = CARTESIAN_POINT ( 'NONE',  ( 10.00000000000000000, 1.224646799147353256E-15, 0.0000000000000000000 ) ) ;
#83 = PRODUCT_DEFINITION_FORMATION_WITH_SPECIFIED_SOURCE ( 'ANY', '', #92, .NOT_KNOWN. ) ;
#84 = DIRECTION ( 'NONE',  ( 1.000000000000000000, 0.0000000000000000000, 0.0000000000000000000 ) ) ;
#85 = CC_DESIGN_SECURITY_CLASSIFICATION ( #128, ( #83 ) ) ;
#86 = DATE_AND_TIME ( #70, #33 ) ;
#87 = DIRECTION ( 'NONE',  ( -0.0000000000000000000, -0.0000000000000000000, -1.000000000000000000 ) ) ;
#88 = AXIS2_PLACEMENT_3D ( 'NONE', #64, #77, #84 ) ;
#89 = APPROVAL_STATUS ( 'not_yet_approved' ) ;
#90 = FACE_OUTER_BOUND ( 'NONE', #32, .T. ) ;
#91 = CARTESIAN_POINT ( 'NONE',  ( 0.0000000000000000000, 0.0000000000000000000, 0.0000000000000000000 ) ) ;
#92 = PRODUCT ( 'Web Model 63207_14816', 'Web Model 63207_14816', '', ( #54 ) ) ;
#93 = APPROVAL_ROLE ( '' ) ;
#94 = APPROVAL_PERSON_ORGANIZATION ( #173, #112, #93 ) ;
#95 = ORIENTED_EDGE ( 'NONE', *, *, #29, .T. ) ;
#96 = ADVANCED_FACE ( 'NONE', ( #169 ), #97, .T. ) ;
#97 = CYLINDRICAL_SURFACE ( 'NONE', #37, 10.00000000000000000 ) ;
#98 = COORDINATED_UNIVERSAL_TIME_OFFSET ( 5, 0, .BEHIND. ) ;
#99 = AXIS2_PLACEMENT_3D ( 'NONE', #106, #66, #2 ) ;
#100 = ORIENTED_EDGE ( 'NONE', *, *, #110, .T. ) ;
#101 = CC_DESIGN_APPROVAL ( #49, ( #138 ) ) ;
#102 = CARTESIAN_POINT ( 'NONE',  ( 10.00000000000000000, 1.224646799147353256E-15, 2.000000000000000000 ) ) ;
#103 = ORGANIZATION ( 'UNSPECIFIED', 'UNSPECIFIED', '' ) ;
#104 = LINE ( 'NONE', #3, #35 ) ;
#105 = APPROVAL_ROLE ( '' ) ;
#106 = CARTESIAN_POINT ( 'NONE',  ( 0.0000000000000000000, 0.0000000000000000000, 0.0000000000000000000 ) ) ;
#107 = CALENDAR_DATE ( 2020, 7, 10 ) ;
#108 = DIRECTION ( 'NONE',  ( 1.000000000000000000, 0.0000000000000000000, -0.0000000000000000000 ) ) ;
#109 = APPROVAL_STATUS ( 'not_yet_approved' ) ;
#110 = EDGE_CURVE ( 'NONE', #158, #139, #130, .T. ) ;
#111 = CLOSED_SHELL ( 'NONE', ( #96, #127, #72, #168 ) ) ;
#112 = APPROVAL ( #58, 'UNSPECIFIED' ) ;
#113 = CALENDAR_DATE ( 2020, 7, 10 ) ;
#114 = SHAPE_DEFINITION_REPRESENTATION ( #154, #74 ) ;
#115 = CC_DESIGN_APPROVAL ( #156, ( #128 ) ) ;
#116 = CALENDAR_DATE ( 2020, 7, 10 ) ;
#117 = CARTESIAN_POINT ( 'NONE',  ( 0.0000000000000000000, 0.0000000000000000000, 2.000000000000000000 ) ) ;
#118 = CARTESIAN_POINT ( 'NONE',  ( -10.00000000000000000, 0.0000000000000000000, 0.0000000000000000000 ) ) ;
#119 = DIRECTION ( 'NONE',  ( -0.0000000000000000000, -0.0000000000000000000, -1.000000000000000000 ) ) ;
#120 = UNCERTAINTY_MEASURE_WITH_UNIT (LENGTH_MEASURE( 1.000000000000000082E-05 ), #25, 'distance_accuracy_value', 'NONE');
#121 = APPLICATION_PROTOCOL_DEFINITION ( 'international standard', 'config_control_design', 1994, #68 ) ;
#122 = SECURITY_CLASSIFICATION_LEVEL ( 'unclassified' ) ;
#123 = VECTOR ( 'NONE', #119, 1000.000000000000000 ) ;
#124 = APPROVAL_ROLE ( '' ) ;
#125 = PERSON ( 'UNSPECIFIED', 'UNSPECIFIED', 'UNSPECIFIED', ('UNSPECIFIED'), ('UNSPECIFIED'), ('UNSPECIFIED') ) ;
#126 = PERSON_AND_ORGANIZATION ( #125, #103 ) ;
#127 = ADVANCED_FACE ( 'NONE', ( #90 ), #164, .T. ) ;
#128 = SECURITY_CLASSIFICATION ( '', '', #122 ) ;
#129 = PERSON_AND_ORGANIZATION ( #125, #103 ) ;
#130 = CIRCLE ( 'NONE', #148, 10.00000000000000000 ) ;
#131 = EDGE_CURVE ( 'NONE', #60, #158, #71, .T. ) ;
#132 = DIRECTION ( 'NONE',  ( 0.0000000000000000000, 0.0000000000000000000, 1.000000000000000000 ) ) ;
#133 = CIRCLE ( 'NONE', #44, 10.00000000000000000 ) ;
#134 = ORIENTED_EDGE ( 'NONE', *, *, #131, .T. ) ;
#135 = DIRECTION ( 'NONE',  ( -0.0000000000000000000, -0.0000000000000000000, -1.000000000000000000 ) ) ;
#136 = COORDINATED_UNIVERSAL_TIME_OFFSET ( 5, 0, .BEHIND. ) ;
#137 = DIRECTION ( 'NONE',  ( 1.000000000000000000, 0.0000000000000000000, -0.0000000000000000000 ) ) ;
#138 = PRODUCT_DEFINITION ( 'UNKNOWN', '', #83, #9 ) ;
#139 = VERTEX_POINT ( 'NONE', #82 ) ;
#140 = EDGE_LOOP ( 'NONE', ( #95, #76 ) ) ;
#141 = CC_DESIGN_DATE_AND_TIME_ASSIGNMENT ( #146, #57, ( #128 ) ) ;
#142 = COORDINATED_UNIVERSAL_TIME_OFFSET ( 5, 0, .BEHIND. ) ;
#143 = ORIENTED_EDGE ( 'NONE', *, *, #20, .T. ) ;
#144 = EDGE_CURVE ( 'NONE', #24, #139, #104, .T. ) ;
#145 = PERSON_AND_ORGANIZATION ( #125, #103 ) ;
#146 = DATE_AND_TIME ( #116, #78 ) ;
#147 = PERSON_AND_ORGANIZATION ( #125, #103 ) ;
#148 = AXIS2_PLACEMENT_3D ( 'NONE', #162, #166, #163 ) ;
#149 = PERSON_AND_ORGANIZATION ( #125, #103 ) ;
#150 = PERSON_AND_ORGANIZATION_ROLE ( 'creator' ) ;
#151 = PLANE ( 'NONE',  #12 ) ;
#152 = LOCAL_TIME ( 13, 34, 22.00000000000000000, #10 ) ;
#153 = CALENDAR_DATE ( 2020, 7, 10 ) ;
#154 = PRODUCT_DEFINITION_SHAPE ( 'NONE', 'NONE',  #138 ) ;
#155 =( GEOMETRIC_REPRESENTATION_CONTEXT ( 3 ) GLOBAL_UNCERTAINTY_ASSIGNED_CONTEXT ( ( #120 ) ) GLOBAL_UNIT_ASSIGNED_CONTEXT ( ( #25, #41, #40 ) ) REPRESENTATION_CONTEXT ( 'NONE', 'WORKASPACE' ) );
#156 = APPROVAL ( #109, 'UNSPECIFIED' ) ;
#157 = LOCAL_TIME ( 13, 34, 22.00000000000000000, #136 ) ;
#158 = VERTEX_POINT ( 'NONE', #118 ) ;
#159 = CC_DESIGN_PERSON_AND_ORGANIZATION_ASSIGNMENT ( #129, #28, ( #83 ) ) ;
#160 = CIRCLE ( 'NONE', #30, 10.00000000000000000 ) ;
#161 = PRODUCT_RELATED_PRODUCT_CATEGORY ( 'detail', '', ( #92 ) ) ;
#162 = CARTESIAN_POINT ( 'NONE',  ( 0.0000000000000000000, 0.0000000000000000000, 0.0000000000000000000 ) ) ;
#163 = DIRECTION ( 'NONE',  ( 1.000000000000000000, 0.0000000000000000000, 0.0000000000000000000 ) ) ;
#164 = CYLINDRICAL_SURFACE ( 'NONE', #26, 10.00000000000000000 ) ;
#165 = DIRECTION ( 'NONE',  ( 0.0000000000000000000, 0.0000000000000000000, 1.000000000000000000 ) ) ;
#166 = DIRECTION ( 'NONE',  ( 0.0000000000000000000, 0.0000000000000000000, 1.000000000000000000 ) ) ;
#167 = PERSON_AND_ORGANIZATION_ROLE ( 'design_supplier' ) ;
#168 = ADVANCED_FACE ( 'NONE', ( #1 ), #52, .F. ) ;
#169 = FACE_OUTER_BOUND ( 'NONE', #36, .T. ) ;
#170 = ORIENTED_EDGE ( 'NONE', *, *, #144, .F. ) ;
#171 = DATE_AND_TIME ( #153, #31 ) ;
#172 = CIRCLE ( 'NONE', #88, 10.00000000000000000 ) ;
#173 = PERSON_AND_ORGANIZATION ( #125, #103 ) ;
#174 = ORIENTED_EDGE ( 'NONE', *, *, #29, .F. ) ;
#175 = CARTESIAN_POINT ( 'NONE',  ( -10.00000000000000000, 0.0000000000000000000, 2.000000000000000000 ) ) ;
ENDSEC;
END-ISO-10303-21;
