ISO-10303-21;
HEADER;
FILE_DESCRIPTION (( 'STEP AP203' ),
    '1' );
FILE_NAME ('Web Model 68157_21019.step',
    '2022-03-15T19:24:34',
    ( '' ),
    ( '' ),
    'SwSTEP 2.0',
    'SolidWorks 2021',
    '' );
FILE_SCHEMA (( 'CONFIG_CONTROL_DESIGN' ));
ENDSEC;

DATA;
#1 = CC_DESIGN_PERSON_AND_ORGANIZATION_ASSIGNMENT ( #134, #62, ( #149 ) ) ;
#2 = CC_DESIGN_APPROVAL ( #55, ( #107 ) ) ;
#3 = DIRECTION ( 'NONE',  ( 0.000000000000000000, 0.000000000000000000, 1.000000000000000000 ) ) ;
#4 = CARTESIAN_POINT ( 'NONE',  ( 0.000000000000000000, 0.000000000000000000, 0.000000000000000000 ) ) ;
#5 = LINE ( 'NONE', #60, #113 ) ;
#6 = CIRCLE ( 'NONE', #26, 6.349999999999999645 ) ;
#7 = CARTESIAN_POINT ( 'NONE',  ( 6.349999999999999645, 7.776507174585692163E-16, 0.000000000000000000 ) ) ;
#8 = APPLICATION_PROTOCOL_DEFINITION ( 'international standard', 'config_control_design', 1994, #111 ) ;
#9 = LOCAL_TIME ( 15, 24, 34.00000000000000000, #66 ) ;
#10 = APPLICATION_CONTEXT ( 'configuration controlled 3d designs of mechanical parts and assemblies' ) ;
#11 = PERSON_AND_ORGANIZATION_ROLE ( 'classification_officer' ) ;
#12 = APPROVAL_PERSON_ORGANIZATION ( #166, #123, #22 ) ;
#13 = COORDINATED_UNIVERSAL_TIME_OFFSET ( 5, 0, .BEHIND. ) ;
#14 = PERSON_AND_ORGANIZATION ( #16, #23 ) ;
#15 = CC_DESIGN_PERSON_AND_ORGANIZATION_ASSIGNMENT ( #54, #172, ( #121 ) ) ;
#16 = PERSON ( 'UNSPECIFIED', 'UNSPECIFIED', 'UNSPECIFIED', ('UNSPECIFIED'), ('UNSPECIFIED'), ('UNSPECIFIED') ) ;
#17 = AXIS2_PLACEMENT_3D ( 'NONE', #152, #143, #156 ) ;
#18 = VERTEX_POINT ( 'NONE', #72 ) ;
#19 = DIRECTION ( 'NONE',  ( 1.000000000000000000, 0.000000000000000000, 0.000000000000000000 ) ) ;
#20 =( NAMED_UNIT ( * ) SI_UNIT ( $, .STERADIAN. ) SOLID_ANGLE_UNIT ( ) );
#21 = DIRECTION ( 'NONE',  ( 1.000000000000000000, 0.000000000000000000, 0.000000000000000000 ) ) ;
#22 = APPROVAL_ROLE ( '' ) ;
#23 = ORGANIZATION ( 'UNSPECIFIED', 'UNSPECIFIED', '' ) ;
#24 = CARTESIAN_POINT ( 'NONE',  ( -6.349999999999999645, 0.000000000000000000, 2.000000000000000000 ) ) ;
#25 = APPROVAL_STATUS ( 'not_yet_approved' ) ;
#26 = AXIS2_PLACEMENT_3D ( 'NONE', #89, #115, #65 ) ;
#27 = CALENDAR_DATE ( 2022, 15, 3 ) ;
#28 = DATE_AND_TIME ( #27, #109 ) ;
#29 = CC_DESIGN_DATE_AND_TIME_ASSIGNMENT ( #53, #102, ( #64 ) ) ;
#30 = ORIENTED_EDGE ( 'NONE', *, *, #127, .T. ) ;
#31 = ADVANCED_BREP_SHAPE_REPRESENTATION ( 'Web Model 68157_21019', ( #129, #17 ), #86 ) ;
#32 = EDGE_CURVE ( 'NONE', #18, #163, #73, .T. ) ;
#33 = ORIENTED_EDGE ( 'NONE', *, *, #127, .F. ) ;
#34 = ORIENTED_EDGE ( 'NONE', *, *, #38, .F. ) ;
#35 = APPROVAL_STATUS ( 'not_yet_approved' ) ;
#36 = FACE_OUTER_BOUND ( 'NONE', #124, .T. ) ;
#37 = DIRECTION ( 'NONE',  ( -1.000000000000000000, 0.000000000000000000, 0.000000000000000000 ) ) ;
#38 = EDGE_CURVE ( 'NONE', #85, #151, #173, .T. ) ;
#39 = DIRECTION ( 'NONE',  ( 0.000000000000000000, 0.000000000000000000, 1.000000000000000000 ) ) ;
#40 = SHAPE_DEFINITION_REPRESENTATION ( #83, #31 ) ;
#41 = ADVANCED_FACE ( 'NONE', ( #82 ), #108, .T. ) ;
#42 = CALENDAR_DATE ( 2022, 15, 3 ) ;
#43 = CC_DESIGN_APPROVAL ( #123, ( #64 ) ) ;
#44 = ORIENTED_EDGE ( 'NONE', *, *, #120, .F. ) ;
#45 = APPROVAL_PERSON_ORGANIZATION ( #122, #171, #104 ) ;
#46 = ORIENTED_EDGE ( 'NONE', *, *, #38, .T. ) ;
#47 = ORIENTED_EDGE ( 'NONE', *, *, #161, .F. ) ;
#48 = LOCAL_TIME ( 15, 24, 34.00000000000000000, #135 ) ;
#49 = LINE ( 'NONE', #24, #94 ) ;
#50 = CALENDAR_DATE ( 2022, 15, 3 ) ;
#51 =( LENGTH_UNIT ( ) NAMED_UNIT ( * ) SI_UNIT ( .MILLI., .METRE. ) );
#52 = CC_DESIGN_APPROVAL ( #171, ( #121 ) ) ;
#53 = DATE_AND_TIME ( #93, #48 ) ;
#54 = PERSON_AND_ORGANIZATION ( #16, #23 ) ;
#55 = APPROVAL ( #25, 'UNSPECIFIED' ) ;
#56 = CARTESIAN_POINT ( 'NONE',  ( 0.000000000000000000, 0.000000000000000000, 0.000000000000000000 ) ) ;
#57 = DIRECTION ( 'NONE',  ( 1.000000000000000000, 0.000000000000000000, -0.000000000000000000 ) ) ;
#58 = CARTESIAN_POINT ( 'NONE',  ( 0.000000000000000000, 0.000000000000000000, 0.000000000000000000 ) ) ;
#59 = CC_DESIGN_PERSON_AND_ORGANIZATION_ASSIGNMENT ( #77, #63, ( #64 ) ) ;
#60 = CARTESIAN_POINT ( 'NONE',  ( 6.349999999999999645, 7.776507174585692163E-16, 2.000000000000000000 ) ) ;
#61 = DESIGN_CONTEXT ( 'detailed design', #111, 'design' ) ;
#62 = PERSON_AND_ORGANIZATION_ROLE ( 'design_owner' ) ;
#63 = PERSON_AND_ORGANIZATION_ROLE ( 'creator' ) ;
#64 = PRODUCT_DEFINITION ( 'UNKNOWN', '', #121, #61 ) ;
#65 = DIRECTION ( 'NONE',  ( 1.000000000000000000, 0.000000000000000000, 0.000000000000000000 ) ) ;
#66 = COORDINATED_UNIVERSAL_TIME_OFFSET ( 5, 0, .BEHIND. ) ;
#67 = LOCAL_TIME ( 15, 24, 34.00000000000000000, #13 ) ;
#68 = PERSON_AND_ORGANIZATION ( #16, #23 ) ;
#69 = ORIENTED_EDGE ( 'NONE', *, *, #120, .T. ) ;
#70 = EDGE_CURVE ( 'NONE', #151, #85, #169, .T. ) ;
#71 = EDGE_LOOP ( 'NONE', ( #33, #96, #46, #44 ) ) ;
#72 = CARTESIAN_POINT ( 'NONE',  ( -6.349999999999999645, 0.000000000000000000, 2.000000000000000000 ) ) ;
#73 = CIRCLE ( 'NONE', #76, 6.349999999999999645 ) ;
#74 = DIRECTION ( 'NONE',  ( 0.000000000000000000, 0.000000000000000000, 1.000000000000000000 ) ) ;
#75 = DIRECTION ( 'NONE',  ( 1.000000000000000000, 0.000000000000000000, -0.000000000000000000 ) ) ;
#76 = AXIS2_PLACEMENT_3D ( 'NONE', #150, #3, #81 ) ;
#77 = PERSON_AND_ORGANIZATION ( #16, #23 ) ;
#78 = CC_DESIGN_PERSON_AND_ORGANIZATION_ASSIGNMENT ( #14, #138, ( #121 ) ) ;
#79 = AXIS2_PLACEMENT_3D ( 'NONE', #175, #74, #57 ) ;
#80 = ADVANCED_FACE ( 'NONE', ( #170 ), #132, .T. ) ;
#81 = DIRECTION ( 'NONE',  ( 1.000000000000000000, 0.000000000000000000, 0.000000000000000000 ) ) ;
#82 = FACE_OUTER_BOUND ( 'NONE', #148, .T. ) ;
#83 = PRODUCT_DEFINITION_SHAPE ( 'NONE', 'NONE',  #64 ) ;
#84 = ORIENTED_EDGE ( 'NONE', *, *, #32, .T. ) ;
#85 = VERTEX_POINT ( 'NONE', #7 ) ;
#86 =( GEOMETRIC_REPRESENTATION_CONTEXT ( 3 ) GLOBAL_UNCERTAINTY_ASSIGNED_CONTEXT ( ( #130 ) ) GLOBAL_UNIT_ASSIGNED_CONTEXT ( ( #51, #141, #20 ) ) REPRESENTATION_CONTEXT ( 'NONE', 'WORKASPACE' ) );
#87 = CYLINDRICAL_SURFACE ( 'NONE', #140, 6.349999999999999645 ) ;
#88 = CARTESIAN_POINT ( 'NONE',  ( 0.000000000000000000, 0.000000000000000000, 2.000000000000000000 ) ) ;
#89 = CARTESIAN_POINT ( 'NONE',  ( 0.000000000000000000, 0.000000000000000000, 2.000000000000000000 ) ) ;
#90 = CLOSED_SHELL ( 'NONE', ( #80, #101, #41, #92 ) ) ;
#91 = DATE_TIME_ROLE ( 'classification_date' ) ;
#92 = ADVANCED_FACE ( 'NONE', ( #36 ), #114, .F. ) ;
#93 = CALENDAR_DATE ( 2022, 15, 3 ) ;
#94 = VECTOR ( 'NONE', #131, 1000.000000000000000 ) ;
#95 = EDGE_LOOP ( 'NONE', ( #47, #128, #69, #164 ) ) ;
#96 = ORIENTED_EDGE ( 'NONE', *, *, #161, .T. ) ;
#97 = MECHANICAL_CONTEXT ( 'NONE', #10, 'mechanical' ) ;
#98 = FACE_OUTER_BOUND ( 'NONE', #95, .T. ) ;
#99 = CARTESIAN_POINT ( 'NONE',  ( 0.000000000000000000, 0.000000000000000000, 2.000000000000000000 ) ) ;
#100 = CC_DESIGN_SECURITY_CLASSIFICATION ( #107, ( #121 ) ) ;
#101 = ADVANCED_FACE ( 'NONE', ( #98 ), #87, .T. ) ;
#102 = DATE_TIME_ROLE ( 'creation_date' ) ;
#103 = AXIS2_PLACEMENT_3D ( 'NONE', #56, #126, #19 ) ;
#104 = APPROVAL_ROLE ( '' ) ;
#105 = CALENDAR_DATE ( 2022, 15, 3 ) ;
#106 = APPROVAL_DATE_TIME ( #158, #171 ) ;
#107 = SECURITY_CLASSIFICATION ( '', '', #160 ) ;
#108 = PLANE ( 'NONE',  #79 ) ;
#109 = LOCAL_TIME ( 15, 24, 34.00000000000000000, #174 ) ;
#110 = DIRECTION ( 'NONE',  ( 0.000000000000000000, 0.000000000000000000, 1.000000000000000000 ) ) ;
#111 = APPLICATION_CONTEXT ( 'configuration controlled 3d designs of mechanical parts and assemblies' ) ;
#112 = DIRECTION ( 'NONE',  ( -0.000000000000000000, -0.000000000000000000, -1.000000000000000000 ) ) ;
#113 = VECTOR ( 'NONE', #168, 1000.000000000000000 ) ;
#114 = PLANE ( 'NONE',  #155 ) ;
#115 = DIRECTION ( 'NONE',  ( 0.000000000000000000, 0.000000000000000000, 1.000000000000000000 ) ) ;
#116 = CARTESIAN_POINT ( 'NONE',  ( 6.349999999999999645, 7.776507174585692163E-16, 2.000000000000000000 ) ) ;
#117 = AXIS2_PLACEMENT_3D ( 'NONE', #99, #133, #154 ) ;
#118 = APPROVAL_DATE_TIME ( #153, #123 ) ;
#119 = DATE_AND_TIME ( #105, #67 ) ;
#120 = EDGE_CURVE ( 'NONE', #18, #151, #49, .T. ) ;
#121 = PRODUCT_DEFINITION_FORMATION_WITH_SPECIFIED_SOURCE ( 'ANY', '', #149, .NOT_KNOWN. ) ;
#122 = PERSON_AND_ORGANIZATION ( #16, #23 ) ;
#123 = APPROVAL ( #35, 'UNSPECIFIED' ) ;
#124 = EDGE_LOOP ( 'NONE', ( #139, #34 ) ) ;
#125 = PRODUCT_RELATED_PRODUCT_CATEGORY ( 'detail', '', ( #149 ) ) ;
#126 = DIRECTION ( 'NONE',  ( 0.000000000000000000, 0.000000000000000000, 1.000000000000000000 ) ) ;
#127 = EDGE_CURVE ( 'NONE', #163, #18, #6, .T. ) ;
#128 = ORIENTED_EDGE ( 'NONE', *, *, #32, .F. ) ;
#129 = MANIFOLD_SOLID_BREP ( 'Boss-Extrude1', #90 ) ;
#130 = UNCERTAINTY_MEASURE_WITH_UNIT (LENGTH_MEASURE( 1.000000000000000082E-05 ), #51, 'distance_accuracy_value', 'NONE');
#131 = DIRECTION ( 'NONE',  ( -0.000000000000000000, -0.000000000000000000, -1.000000000000000000 ) ) ;
#132 = CYLINDRICAL_SURFACE ( 'NONE', #117, 6.349999999999999645 ) ;
#133 = DIRECTION ( 'NONE',  ( -0.000000000000000000, -0.000000000000000000, -1.000000000000000000 ) ) ;
#134 = PERSON_AND_ORGANIZATION ( #16, #23 ) ;
#135 = COORDINATED_UNIVERSAL_TIME_OFFSET ( 5, 0, .BEHIND. ) ;
#136 = COORDINATED_UNIVERSAL_TIME_OFFSET ( 5, 0, .BEHIND. ) ;
#137 = APPROVAL_DATE_TIME ( #28, #55 ) ;
#138 = PERSON_AND_ORGANIZATION_ROLE ( 'creator' ) ;
#139 = ORIENTED_EDGE ( 'NONE', *, *, #70, .F. ) ;
#140 = AXIS2_PLACEMENT_3D ( 'NONE', #88, #112, #37 ) ;
#141 =( NAMED_UNIT ( * ) PLANE_ANGLE_UNIT ( ) SI_UNIT ( $, .RADIAN. ) );
#142 = LOCAL_TIME ( 15, 24, 34.00000000000000000, #136 ) ;
#143 = DIRECTION ( 'NONE',  ( 0.000000000000000000, 0.000000000000000000, 1.000000000000000000 ) ) ;
#144 = CC_DESIGN_DATE_AND_TIME_ASSIGNMENT ( #119, #91, ( #107 ) ) ;
#145 = APPLICATION_PROTOCOL_DEFINITION ( 'international standard', 'config_control_design', 1994, #10 ) ;
#146 = PERSON_AND_ORGANIZATION ( #16, #23 ) ;
#147 = APPROVAL_ROLE ( '' ) ;
#148 = EDGE_LOOP ( 'NONE', ( #84, #30 ) ) ;
#149 = PRODUCT ( 'Web Model 68157_21019', 'Web Model 68157_21019', '', ( #97 ) ) ;
#150 = CARTESIAN_POINT ( 'NONE',  ( 0.000000000000000000, 0.000000000000000000, 2.000000000000000000 ) ) ;
#151 = VERTEX_POINT ( 'NONE', #167 ) ;
#152 = CARTESIAN_POINT ( 'NONE',  ( 0.000000000000000000, 0.000000000000000000, 0.000000000000000000 ) ) ;
#153 = DATE_AND_TIME ( #50, #9 ) ;
#154 = DIRECTION ( 'NONE',  ( -1.000000000000000000, 0.000000000000000000, 0.000000000000000000 ) ) ;
#155 = AXIS2_PLACEMENT_3D ( 'NONE', #4, #39, #75 ) ;
#156 = DIRECTION ( 'NONE',  ( 1.000000000000000000, 0.000000000000000000, 0.000000000000000000 ) ) ;
#157 = CC_DESIGN_PERSON_AND_ORGANIZATION_ASSIGNMENT ( #68, #11, ( #107 ) ) ;
#158 = DATE_AND_TIME ( #42, #142 ) ;
#159 = APPROVAL_STATUS ( 'not_yet_approved' ) ;
#160 = SECURITY_CLASSIFICATION_LEVEL ( 'unclassified' ) ;
#161 = EDGE_CURVE ( 'NONE', #163, #85, #5, .T. ) ;
#162 = APPROVAL_PERSON_ORGANIZATION ( #146, #55, #147 ) ;
#163 = VERTEX_POINT ( 'NONE', #116 ) ;
#164 = ORIENTED_EDGE ( 'NONE', *, *, #70, .T. ) ;
#165 = AXIS2_PLACEMENT_3D ( 'NONE', #58, #110, #21 ) ;
#166 = PERSON_AND_ORGANIZATION ( #16, #23 ) ;
#167 = CARTESIAN_POINT ( 'NONE',  ( -6.349999999999999645, 0.000000000000000000, 0.000000000000000000 ) ) ;
#168 = DIRECTION ( 'NONE',  ( -0.000000000000000000, -0.000000000000000000, -1.000000000000000000 ) ) ;
#169 = CIRCLE ( 'NONE', #165, 6.349999999999999645 ) ;
#170 = FACE_OUTER_BOUND ( 'NONE', #71, .T. ) ;
#171 = APPROVAL ( #159, 'UNSPECIFIED' ) ;
#172 = PERSON_AND_ORGANIZATION_ROLE ( 'design_supplier' ) ;
#173 = CIRCLE ( 'NONE', #103, 6.349999999999999645 ) ;
#174 = COORDINATED_UNIVERSAL_TIME_OFFSET ( 5, 0, .BEHIND. ) ;
#175 = CARTESIAN_POINT ( 'NONE',  ( 0.000000000000000000, 0.000000000000000000, 2.000000000000000000 ) ) ;
ENDSEC;
END-ISO-10303-21;
