ISO-10303-21;
HEADER;
FILE_DESCRIPTION (( 'STEP AP214' ),
    '1' );
FILE_NAME ('3269-E0W.STEP',
    '2009-12-21T16:56:35',
    ( ' ' ),
    ( ' ' ),
    'SwSTEP 2.0',
    'SolidWorks 2009',
    '' );
FILE_SCHEMA (( 'AUTOMOTIVE_DESIGN' ));
ENDSEC;

DATA;
#1 =( LENGTH_UNIT ( ) NAMED_UNIT ( * ) SI_UNIT ( .MILLI., .METRE. ) );
#2 =( NAMED_UNIT ( * ) PLANE_ANGLE_UNIT ( ) SI_UNIT ( $, .RADIAN. ) );
#3 = PRESENTATION_STYLE_ASSIGNMENT (( #4 ) ) ;
#4 = SURFACE_STYLE_USAGE ( .BOTH. , #11 ) ;
#5 = SURFACE_STYLE_FILL_AREA ( #8 ) ;
#6 = COLOUR_RGB ( '',0.9568627450980391500, 0.9490196078431372100, 0.9607843137254902200 ) ;
#7 = FILL_AREA_STYLE_COLOUR ( '', #6 ) ;
#8 = FILL_AREA_STYLE ('',( #7 ) ) ;
#9 =( NAMED_UNIT ( * ) SI_UNIT ( $, .STERADIAN. ) SOLID_ANGLE_UNIT ( ) );
#10 =( GEOMETRIC_REPRESENTATION_CONTEXT ( 3 ) GLOBAL_UNCERTAINTY_ASSIGNED_CONTEXT ( ( #13 ) ) GLOBAL_UNIT_ASSIGNED_CONTEXT ( ( #1, #2, #9 ) ) REPRESENTATION_CONTEXT ( 'NONE', 'WORKASPACE' ) );
#11 = SURFACE_SIDE_STYLE ('',( #5 ) ) ;
#12 = STYLED_ITEM ( 'NONE', ( #3 ), #39 ) ;
#13 = UNCERTAINTY_MEASURE_WITH_UNIT (LENGTH_MEASURE( 1.000000000000000100E-005 ), #1, 'distance_accuracy_value', 'NONE');
#14 = FACE_OUTER_BOUND ( 'NONE', #40, .T. ) ;
#15 = PRESENTATION_LAYER_ASSIGNMENT (  '', '', ( #12 ) ) ;
#16 = UNCERTAINTY_MEASURE_WITH_UNIT (LENGTH_MEASURE( 1.000000000000000100E-005 ), #20, 'distance_accuracy_value', 'NONE');
#17 =( GEOMETRIC_REPRESENTATION_CONTEXT ( 3 ) GLOBAL_UNCERTAINTY_ASSIGNED_CONTEXT ( ( #16 ) ) GLOBAL_UNIT_ASSIGNED_CONTEXT ( ( #20, #23, #18 ) ) REPRESENTATION_CONTEXT ( 'NONE', 'WORKASPACE' ) );
#18 =( NAMED_UNIT ( * ) SI_UNIT ( $, .STERADIAN. ) SOLID_ANGLE_UNIT ( ) );
#19 = MECHANICAL_DESIGN_GEOMETRIC_PRESENTATION_REPRESENTATION (  '', ( #12 ), #17 ) ;
#20 =( LENGTH_UNIT ( ) NAMED_UNIT ( * ) SI_UNIT ( .MILLI., .METRE. ) );
#21 = MECHANICAL_DESIGN_GEOMETRIC_PRESENTATION_REPRESENTATION (  '', ( #93 ), #91 ) ;
#22 =( LENGTH_UNIT ( ) NAMED_UNIT ( * ) SI_UNIT ( .MILLI., .METRE. ) );
#23 =( NAMED_UNIT ( * ) PLANE_ANGLE_UNIT ( ) SI_UNIT ( $, .RADIAN. ) );
#24 =( NAMED_UNIT ( * ) PLANE_ANGLE_UNIT ( ) SI_UNIT ( $, .RADIAN. ) );
#25 =( NAMED_UNIT ( * ) SI_UNIT ( $, .STERADIAN. ) SOLID_ANGLE_UNIT ( ) );
#26 = ORIENTED_EDGE ( 'NONE', *, *, #42, .F. ) ;
#27 = ORIENTED_EDGE ( 'NONE', *, *, #74, .F. ) ;
#28 = ORIENTED_EDGE ( 'NONE', *, *, #33, .T. ) ;
#29 = ORIENTED_EDGE ( 'NONE', *, *, #75, .F. ) ;
#30 = ORIENTED_EDGE ( 'NONE', *, *, #71, .F. ) ;
#31 = ORIENTED_EDGE ( 'NONE', *, *, #79, .F. ) ;
#32 = ORIENTED_EDGE ( 'NONE', *, *, #59, .F. ) ;
#33 = EDGE_CURVE ( 'NONE', #77, #76, #47, .T. ) ;
#34 = EDGE_LOOP ( 'NONE', ( #29, #57 ) ) ;
#35 = EDGE_LOOP ( 'NONE', ( #31, #28, #36, #32, #30 ) ) ;
#36 = ORIENTED_EDGE ( 'NONE', *, *, #42, .T. ) ;
#37 = ORIENTED_EDGE ( 'NONE', *, *, #62, .T. ) ;
#38 = MANIFOLD_SOLID_BREP ( 'NONE', #58 ) ;
#39 = ADVANCED_FACE ( 'NONE', ( #14 ), #114, .T. ) ;
#40 = EDGE_LOOP ( 'NONE', ( #41, #78, #54, #53, #26 ) ) ;
#41 = ORIENTED_EDGE ( 'NONE', *, *, #75, .T. ) ;
#42 = EDGE_CURVE ( 'NONE', #76, #63, #115, .T. ) ;
#43 = ORIENTED_EDGE ( 'NONE', *, *, #55, .T. ) ;
#44 = DIRECTION ( 'NONE',  ( 1.000000000000000000, 0.0000000000000000000, 0.0000000000000000000 ) ) ;
#45 = DIRECTION ( 'NONE',  ( -0.0000000000000000000, -0.0000000000000000000, 1.000000000000000000 ) ) ;
#46 = AXIS2_PLACEMENT_3D ( 'NONE', #67, #45, #44 ) ;
#47 = CIRCLE ( 'NONE', #46, 25.39999999999999900 ) ;
#48 = UNCERTAINTY_MEASURE_WITH_UNIT (LENGTH_MEASURE( 1.000000000000000100E-005 ), #22, 'distance_accuracy_value', 'NONE');
#49 = ORIENTED_EDGE ( 'NONE', *, *, #52, .T. ) ;
#50 = ADVANCED_FACE ( 'NONE', ( #151 ), #136, .T. ) ;
#51 = EDGE_LOOP ( 'NONE', ( #43, #73, #72, #61 ) ) ;
#52 = EDGE_CURVE ( 'NONE', #63, #56, #135, .T. ) ;
#53 = ORIENTED_EDGE ( 'NONE', *, *, #52, .F. ) ;
#54 = ORIENTED_EDGE ( 'NONE', *, *, #55, .F. ) ;
#55 = EDGE_CURVE ( 'NONE', #56, #80, #124, .T. ) ;
#56 = VERTEX_POINT ( 'NONE', #125 ) ;
#57 = ORIENTED_EDGE ( 'NONE', *, *, #33, .F. ) ;
#58 = CLOSED_SHELL ( 'NONE', ( #39, #50, #68, #65, #64 ) ) ;
#59 = EDGE_CURVE ( 'NONE', #70, #63, #113, .T. ) ;
#60 = VERTEX_POINT ( 'NONE', #108 ) ;
#61 = ORIENTED_EDGE ( 'NONE', *, *, #62, .F. ) ;
#62 = EDGE_CURVE ( 'NONE', #56, #60, #107, .T. ) ;
#63 = VERTEX_POINT ( 'NONE', #102 ) ;
#64 = ADVANCED_FACE ( 'NONE', ( #101 ), #181, .F. ) ;
#65 = ADVANCED_FACE ( 'NONE', ( #176 ), #162, .T. ) ;
#66 = ORIENTED_EDGE ( 'NONE', *, *, #59, .T. ) ;
#67 = CARTESIAN_POINT ( 'NONE',  ( 0.0000000000000000000, 0.0000000000000000000, -6.259999999999999800 ) ) ;
#68 = ADVANCED_FACE ( 'NONE', ( #161 ), #195, .T. ) ;
#69 = EDGE_LOOP ( 'NONE', ( #27, #66, #49, #37 ) ) ;
#70 = VERTEX_POINT ( 'NONE', #190 ) ;
#71 = EDGE_CURVE ( 'NONE', #80, #70, #188, .T. ) ;
#72 = ORIENTED_EDGE ( 'NONE', *, *, #74, .T. ) ;
#73 = ORIENTED_EDGE ( 'NONE', *, *, #71, .T. ) ;
#74 = EDGE_CURVE ( 'NONE', #70, #60, #230, .T. ) ;
#75 = EDGE_CURVE ( 'NONE', #76, #77, #226, .T. ) ;
#76 = VERTEX_POINT ( 'NONE', #222 ) ;
#77 = VERTEX_POINT ( 'NONE', #221 ) ;
#78 = ORIENTED_EDGE ( 'NONE', *, *, #79, .T. ) ;
#79 = EDGE_CURVE ( 'NONE', #77, #80, #220, .T. ) ;
#80 = VERTEX_POINT ( 'NONE', #216 ) ;
#81 = STYLED_ITEM ( 'NONE', ( #82 ), #38 ) ;
#82 = PRESENTATION_STYLE_ASSIGNMENT (( #86 ) ) ;
#83 = FILL_AREA_STYLE_COLOUR ( '', #88 ) ;
#84 = SURFACE_STYLE_FILL_AREA ( #85 ) ;
#85 = FILL_AREA_STYLE ('',( #83 ) ) ;
#86 = SURFACE_STYLE_USAGE ( .BOTH. , #87 ) ;
#87 = SURFACE_SIDE_STYLE ('',( #84 ) ) ;
#88 = COLOUR_RGB ( '',0.7960784313725489700, 0.8235294117647058400, 0.9372549019607843100 ) ;
#89 = MECHANICAL_DESIGN_GEOMETRIC_PRESENTATION_REPRESENTATION (  '', ( #81 ), #10 ) ;
#90 = PRESENTATION_LAYER_ASSIGNMENT (  '', '', ( #81 ) ) ;
#91 =( GEOMETRIC_REPRESENTATION_CONTEXT ( 3 ) GLOBAL_UNCERTAINTY_ASSIGNED_CONTEXT ( ( #48 ) ) GLOBAL_UNIT_ASSIGNED_CONTEXT ( ( #22, #24, #25 ) ) REPRESENTATION_CONTEXT ( 'NONE', 'WORKASPACE' ) );
#92 = PRESENTATION_LAYER_ASSIGNMENT (  '', '', ( #93 ) ) ;
#93 = STYLED_ITEM ( 'NONE', ( #94 ), #64 ) ;
#94 = PRESENTATION_STYLE_ASSIGNMENT (( #95 ) ) ;
#95 = SURFACE_STYLE_USAGE ( .BOTH. , #96 ) ;
#96 = SURFACE_SIDE_STYLE ('',( #97 ) ) ;
#97 = SURFACE_STYLE_FILL_AREA ( #98 ) ;
#98 = FILL_AREA_STYLE ('',( #99 ) ) ;
#99 = FILL_AREA_STYLE_COLOUR ( '', #100 ) ;
#100 = COLOUR_RGB ( '',0.9568627450980391500, 0.9490196078431372100, 0.9607843137254902200 ) ;
#101 = FACE_OUTER_BOUND ( 'NONE', #34, .T. ) ;
#102 = CARTESIAN_POINT ( 'NONE',  ( 25.39999999999999900, 0.0000000000000000000, -3.264727281813692500 ) ) ;
#103 = DIRECTION ( 'NONE',  ( 0.0000000000000000000, 0.0000000000000000000, -1.000000000000000000 ) ) ;
#104 = DIRECTION ( 'NONE',  ( 1.000000000000000000, 0.0000000000000000000, 0.0000000000000000000 ) ) ;
#105 = CARTESIAN_POINT ( 'NONE',  ( 0.0000000000000000000, 0.0000000000000000000, -32.37000000000000500 ) ) ;
#106 = AXIS2_PLACEMENT_3D ( 'NONE', #105, #104, #103 ) ;
#107 = CIRCLE ( 'NONE', #106, 38.63000000000000300 ) ;
#108 = CARTESIAN_POINT ( 'NONE',  ( 0.0000000000000000000, 2.365327172407922000E-015, 6.260000000000001600 ) ) ;
#109 = DIRECTION ( 'NONE',  ( 1.000000000000000000, 0.0000000000000000000, 0.0000000000000000000 ) ) ;
#110 = DIRECTION ( 'NONE',  ( -0.0000000000000000000, -0.0000000000000000000, 1.000000000000000000 ) ) ;
#111 = CARTESIAN_POINT ( 'NONE',  ( 0.0000000000000000000, 0.0000000000000000000, -3.264727281813692500 ) ) ;
#112 = AXIS2_PLACEMENT_3D ( 'NONE', #111, #110, #109 ) ;
#113 = CIRCLE ( 'NONE', #112, 25.39999999999999900 ) ;
#114 = CYLINDRICAL_SURFACE ( 'NONE', #132, 25.39999999999999900 ) ;
#115 = LINE ( 'NONE', #154, #153 ) ;
#116 = FILL_AREA_STYLE_COLOUR ( '', #150 ) ;
#117 = DIRECTION ( 'NONE',  ( 1.000000000000000000, 0.0000000000000000000, 0.0000000000000000000 ) ) ;
#118 = DIRECTION ( 'NONE',  ( -0.0000000000000000000, -0.0000000000000000000, 1.000000000000000000 ) ) ;
#119 = CARTESIAN_POINT ( 'NONE',  ( 0.0000000000000000000, 0.0000000000000000000, 4.308132045400366600 ) ) ;
#120 = DIRECTION ( 'NONE',  ( 1.000000000000000000, 0.0000000000000000000, 0.0000000000000000000 ) ) ;
#121 = DIRECTION ( 'NONE',  ( -0.0000000000000000000, -0.0000000000000000000, 1.000000000000000000 ) ) ;
#122 = CARTESIAN_POINT ( 'NONE',  ( 0.0000000000000000000, 0.0000000000000000000, -3.264727281813692500 ) ) ;
#123 = AXIS2_PLACEMENT_3D ( 'NONE', #122, #121, #120 ) ;
#124 = CIRCLE ( 'NONE', #123, 25.39999999999999900 ) ;
#125 = CARTESIAN_POINT ( 'NONE',  ( 0.0000000000000000000, 25.39999999999999900, -3.264727281813690800 ) ) ;
#126 = DIRECTION ( 'NONE',  ( 1.000000000000000000, 0.0000000000000000000, 0.0000000000000000000 ) ) ;
#127 = DIRECTION ( 'NONE',  ( -0.0000000000000000000, -0.0000000000000000000, 1.000000000000000000 ) ) ;
#128 = CARTESIAN_POINT ( 'NONE',  ( 0.0000000000000000000, 0.0000000000000000000, -3.264727281813692500 ) ) ;
#129 = AXIS2_PLACEMENT_3D ( 'NONE', #128, #127, #126 ) ;
#130 = DIRECTION ( 'NONE',  ( 0.0000000000000000000, 1.000000000000000000, 0.0000000000000000000 ) ) ;
#131 = DIRECTION ( 'NONE',  ( -1.000000000000000000, 0.0000000000000000000, 0.0000000000000000000 ) ) ;
#132 = AXIS2_PLACEMENT_3D ( 'NONE', #119, #118, #117 ) ;
#133 = CARTESIAN_POINT ( 'NONE',  ( 0.0000000000000000000, 0.0000000000000000000, -32.37000000000000500 ) ) ;
#134 = AXIS2_PLACEMENT_3D ( 'NONE', #133, #131, #130 ) ;
#135 = CIRCLE ( 'NONE', #129, 25.39999999999999900 ) ;
#136 = SPHERICAL_SURFACE ( 'NONE', #134, 38.63000000000000300 ) ;
#137 =( GEOMETRIC_REPRESENTATION_CONTEXT ( 3 ) GLOBAL_UNCERTAINTY_ASSIGNED_CONTEXT ( ( #138 ) ) GLOBAL_UNIT_ASSIGNED_CONTEXT ( ( #141, #140, #139 ) ) REPRESENTATION_CONTEXT ( 'NONE', 'WORKASPACE' ) );
#138 = UNCERTAINTY_MEASURE_WITH_UNIT (LENGTH_MEASURE( 1.000000000000000100E-005 ), #141, 'distance_accuracy_value', 'NONE');
#139 =( NAMED_UNIT ( * ) SI_UNIT ( $, .STERADIAN. ) SOLID_ANGLE_UNIT ( ) );
#140 =( NAMED_UNIT ( * ) PLANE_ANGLE_UNIT ( ) SI_UNIT ( $, .RADIAN. ) );
#141 =( LENGTH_UNIT ( ) NAMED_UNIT ( * ) SI_UNIT ( .MILLI., .METRE. ) );
#142 = MECHANICAL_DESIGN_GEOMETRIC_PRESENTATION_REPRESENTATION (  '', ( #144 ), #137 ) ;
#143 = PRESENTATION_LAYER_ASSIGNMENT (  '', '', ( #144 ) ) ;
#144 = STYLED_ITEM ( 'NONE', ( #145 ), #50 ) ;
#145 = PRESENTATION_STYLE_ASSIGNMENT (( #146 ) ) ;
#146 = SURFACE_STYLE_USAGE ( .BOTH. , #147 ) ;
#147 = SURFACE_SIDE_STYLE ('',( #148 ) ) ;
#148 = SURFACE_STYLE_FILL_AREA ( #149 ) ;
#149 = FILL_AREA_STYLE ('',( #116 ) ) ;
#150 = COLOUR_RGB ( '',0.9568627450980391500, 0.9490196078431372100, 0.9607843137254902200 ) ;
#151 = FACE_OUTER_BOUND ( 'NONE', #51, .T. ) ;
#152 = DIRECTION ( 'NONE',  ( -0.0000000000000000000, -0.0000000000000000000, 1.000000000000000000 ) ) ;
#153 = VECTOR ( 'NONE', #152, 1000.000000000000000 ) ;
#154 = CARTESIAN_POINT ( 'NONE',  ( 25.39999999999999900, 0.0000000000000000000, 4.308132045400366600 ) ) ;
#155 = FILL_AREA_STYLE_COLOUR ( '', #160 ) ;
#156 = DIRECTION ( 'NONE',  ( 1.000000000000000000, 0.0000000000000000000, 0.0000000000000000000 ) ) ;
#157 = DIRECTION ( 'NONE',  ( -0.0000000000000000000, -0.0000000000000000000, 1.000000000000000000 ) ) ;
#158 = CARTESIAN_POINT ( 'NONE',  ( 0.0000000000000000000, 0.0000000000000000000, 4.308132045400366600 ) ) ;
#159 = AXIS2_PLACEMENT_3D ( 'NONE', #158, #157, #156 ) ;
#160 = COLOUR_RGB ( '',0.9568627450980391500, 0.9490196078431372100, 0.9607843137254902200 ) ;
#161 = FACE_OUTER_BOUND ( 'NONE', #69, .T. ) ;
#162 = CYLINDRICAL_SURFACE ( 'NONE', #159, 25.39999999999999900 ) ;
#163 =( GEOMETRIC_REPRESENTATION_CONTEXT ( 3 ) GLOBAL_UNCERTAINTY_ASSIGNED_CONTEXT ( ( #164 ) ) GLOBAL_UNIT_ASSIGNED_CONTEXT ( ( #167, #166, #165 ) ) REPRESENTATION_CONTEXT ( 'NONE', 'WORKASPACE' ) );
#164 = UNCERTAINTY_MEASURE_WITH_UNIT (LENGTH_MEASURE( 1.000000000000000100E-005 ), #167, 'distance_accuracy_value', 'NONE');
#165 =( NAMED_UNIT ( * ) SI_UNIT ( $, .STERADIAN. ) SOLID_ANGLE_UNIT ( ) );
#166 =( NAMED_UNIT ( * ) PLANE_ANGLE_UNIT ( ) SI_UNIT ( $, .RADIAN. ) );
#167 =( LENGTH_UNIT ( ) NAMED_UNIT ( * ) SI_UNIT ( .MILLI., .METRE. ) );
#168 = MECHANICAL_DESIGN_GEOMETRIC_PRESENTATION_REPRESENTATION (  '', ( #170 ), #163 ) ;
#169 = PRESENTATION_LAYER_ASSIGNMENT (  '', '', ( #170 ) ) ;
#170 = STYLED_ITEM ( 'NONE', ( #171 ), #65 ) ;
#171 = PRESENTATION_STYLE_ASSIGNMENT (( #172 ) ) ;
#172 = SURFACE_STYLE_USAGE ( .BOTH. , #173 ) ;
#173 = SURFACE_SIDE_STYLE ('',( #174 ) ) ;
#174 = SURFACE_STYLE_FILL_AREA ( #182 ) ;
#175 = COLOUR_RGB ( '',0.9568627450980391500, 0.9490196078431372100, 0.9607843137254902200 ) ;
#176 = FACE_OUTER_BOUND ( 'NONE', #35, .T. ) ;
#177 = DIRECTION ( 'NONE',  ( 1.000000000000000000, 0.0000000000000000000, 0.0000000000000000000 ) ) ;
#178 = DIRECTION ( 'NONE',  ( 0.0000000000000000000, -0.0000000000000000000, 1.000000000000000000 ) ) ;
#179 = CARTESIAN_POINT ( 'NONE',  ( 0.0000000000000000000, 2.299886688798729100E-015, -6.259999999999999800 ) ) ;
#180 = AXIS2_PLACEMENT_3D ( 'NONE', #179, #178, #177 ) ;
#181 = PLANE ( 'NONE',  #180 ) ;
#182 = FILL_AREA_STYLE ('',( #183 ) ) ;
#183 = FILL_AREA_STYLE_COLOUR ( '', #175 ) ;
#184 = DIRECTION ( 'NONE',  ( 1.000000000000000000, 0.0000000000000000000, 0.0000000000000000000 ) ) ;
#185 = DIRECTION ( 'NONE',  ( -0.0000000000000000000, -0.0000000000000000000, 1.000000000000000000 ) ) ;
#186 = CARTESIAN_POINT ( 'NONE',  ( 0.0000000000000000000, 0.0000000000000000000, -3.264727281813692500 ) ) ;
#187 = AXIS2_PLACEMENT_3D ( 'NONE', #186, #185, #184 ) ;
#188 = CIRCLE ( 'NONE', #187, 25.39999999999999900 ) ;
#189 = CARTESIAN_POINT ( 'NONE',  ( 0.0000000000000000000, 0.0000000000000000000, -32.37000000000000500 ) ) ;
#190 = CARTESIAN_POINT ( 'NONE',  ( -3.110500138708838600E-015, -25.39999999999999900, -3.264727281813690800 ) ) ;
#191 = DIRECTION ( 'NONE',  ( 0.0000000000000000000, 1.000000000000000000, 0.0000000000000000000 ) ) ;
#192 = DIRECTION ( 'NONE',  ( -1.000000000000000000, 0.0000000000000000000, 0.0000000000000000000 ) ) ;
#193 = CARTESIAN_POINT ( 'NONE',  ( 0.0000000000000000000, 0.0000000000000000000, -32.37000000000000500 ) ) ;
#194 = AXIS2_PLACEMENT_3D ( 'NONE', #193, #192, #191 ) ;
#195 = SPHERICAL_SURFACE ( 'NONE', #194, 38.63000000000000300 ) ;
#196 =( GEOMETRIC_REPRESENTATION_CONTEXT ( 3 ) GLOBAL_UNCERTAINTY_ASSIGNED_CONTEXT ( ( #197 ) ) GLOBAL_UNIT_ASSIGNED_CONTEXT ( ( #200, #199, #198 ) ) REPRESENTATION_CONTEXT ( 'NONE', 'WORKASPACE' ) );
#197 = UNCERTAINTY_MEASURE_WITH_UNIT (LENGTH_MEASURE( 1.000000000000000100E-005 ), #200, 'distance_accuracy_value', 'NONE');
#198 =( NAMED_UNIT ( * ) SI_UNIT ( $, .STERADIAN. ) SOLID_ANGLE_UNIT ( ) );
#199 =( NAMED_UNIT ( * ) PLANE_ANGLE_UNIT ( ) SI_UNIT ( $, .RADIAN. ) );
#200 =( LENGTH_UNIT ( ) NAMED_UNIT ( * ) SI_UNIT ( .MILLI., .METRE. ) );
#201 = MECHANICAL_DESIGN_GEOMETRIC_PRESENTATION_REPRESENTATION (  '', ( #203 ), #196 ) ;
#202 = PRESENTATION_LAYER_ASSIGNMENT (  '', '', ( #203 ) ) ;
#203 = STYLED_ITEM ( 'NONE', ( #204 ), #68 ) ;
#204 = PRESENTATION_STYLE_ASSIGNMENT (( #205 ) ) ;
#205 = SURFACE_STYLE_USAGE ( .BOTH. , #206 ) ;
#206 = SURFACE_SIDE_STYLE ('',( #207 ) ) ;
#207 = SURFACE_STYLE_FILL_AREA ( #208 ) ;
#208 = FILL_AREA_STYLE ('',( #155 ) ) ;
#209 = ADVANCED_BREP_SHAPE_REPRESENTATION ( '3269-E0W', ( #38, #232 ), #210 ) ;
#210 =( GEOMETRIC_REPRESENTATION_CONTEXT ( 3 ) GLOBAL_UNCERTAINTY_ASSIGNED_CONTEXT ( ( #211 ) ) GLOBAL_UNIT_ASSIGNED_CONTEXT ( ( #214, #213, #212 ) ) REPRESENTATION_CONTEXT ( 'NONE', 'WORKASPACE' ) );
#211 = UNCERTAINTY_MEASURE_WITH_UNIT (LENGTH_MEASURE( 1.000000000000000100E-005 ), #214, 'distance_accuracy_value', 'NONE');
#212 =( NAMED_UNIT ( * ) SI_UNIT ( $, .STERADIAN. ) SOLID_ANGLE_UNIT ( ) );
#213 =( NAMED_UNIT ( * ) PLANE_ANGLE_UNIT ( ) SI_UNIT ( $, .RADIAN. ) );
#214 =( LENGTH_UNIT ( ) NAMED_UNIT ( * ) SI_UNIT ( .MILLI., .METRE. ) );
#215 = CARTESIAN_POINT ( 'NONE',  ( 0.0000000000000000000, 0.0000000000000000000, 0.0000000000000000000 ) ) ;
#216 = CARTESIAN_POINT ( 'NONE',  ( -25.39999999999999900, 3.110500138708838200E-015, -3.264727281813692500 ) ) ;
#217 = DIRECTION ( 'NONE',  ( -0.0000000000000000000, -0.0000000000000000000, 1.000000000000000000 ) ) ;
#218 = VECTOR ( 'NONE', #217, 1000.000000000000000 ) ;
#219 = CARTESIAN_POINT ( 'NONE',  ( -25.39999999999999900, 3.110500138708838200E-015, 4.308132045400366600 ) ) ;
#220 = LINE ( 'NONE', #219, #218 ) ;
#221 = CARTESIAN_POINT ( 'NONE',  ( -25.39999999999999900, 3.110500138708838200E-015, -6.259999999999999800 ) ) ;
#222 = CARTESIAN_POINT ( 'NONE',  ( 25.39999999999999900, 0.0000000000000000000, -6.259999999999999800 ) ) ;
#223 = DIRECTION ( 'NONE',  ( 1.000000000000000000, 0.0000000000000000000, 0.0000000000000000000 ) ) ;
#224 = DIRECTION ( 'NONE',  ( -0.0000000000000000000, -0.0000000000000000000, 1.000000000000000000 ) ) ;
#225 = AXIS2_PLACEMENT_3D ( 'NONE', #231, #224, #223 ) ;
#226 = CIRCLE ( 'NONE', #225, 25.39999999999999900 ) ;
#227 = DIRECTION ( 'NONE',  ( -1.224606353822377300E-016, -1.000000000000000000, 0.0000000000000000000 ) ) ;
#228 = DIRECTION ( 'NONE',  ( -1.000000000000000000, 1.224606353822377300E-016, 0.0000000000000000000 ) ) ;
#229 = AXIS2_PLACEMENT_3D ( 'NONE', #189, #228, #227 ) ;
#230 = CIRCLE ( 'NONE', #229, 38.63000000000000300 ) ;
#231 = CARTESIAN_POINT ( 'NONE',  ( 0.0000000000000000000, 0.0000000000000000000, -6.259999999999999800 ) ) ;
#232 = AXIS2_PLACEMENT_3D ( 'NONE', #215, #233, #235 ) ;
#233 = DIRECTION ( 'NONE',  ( 0.0000000000000000000, 0.0000000000000000000, 1.000000000000000000 ) ) ;
#234 = SHAPE_DEFINITION_REPRESENTATION ( #253, #209 ) ;
#235 = DIRECTION ( 'NONE',  ( 1.000000000000000000, 0.0000000000000000000, 0.0000000000000000000 ) ) ;
#236 =( GEOMETRIC_REPRESENTATION_CONTEXT ( 3 ) GLOBAL_UNCERTAINTY_ASSIGNED_CONTEXT ( ( #237 ) ) GLOBAL_UNIT_ASSIGNED_CONTEXT ( ( #240, #239, #238 ) ) REPRESENTATION_CONTEXT ( 'NONE', 'WORKASPACE' ) );
#237 = UNCERTAINTY_MEASURE_WITH_UNIT (LENGTH_MEASURE( 1.000000000000000100E-005 ), #240, 'distance_accuracy_value', 'NONE');
#238 =( NAMED_UNIT ( * ) SI_UNIT ( $, .STERADIAN. ) SOLID_ANGLE_UNIT ( ) );
#239 =( NAMED_UNIT ( * ) PLANE_ANGLE_UNIT ( ) SI_UNIT ( $, .RADIAN. ) );
#240 =( LENGTH_UNIT ( ) NAMED_UNIT ( * ) SI_UNIT ( .MILLI., .METRE. ) );
#241 = MECHANICAL_DESIGN_GEOMETRIC_PRESENTATION_REPRESENTATION (  '', ( #243 ), #236 ) ;
#242 = PRESENTATION_LAYER_ASSIGNMENT (  '', '', ( #243 ) ) ;
#243 = STYLED_ITEM ( 'NONE', ( #244 ), #209 ) ;
#244 = PRESENTATION_STYLE_ASSIGNMENT (( #245 ) ) ;
#245 = SURFACE_STYLE_USAGE ( .BOTH. , #246 ) ;
#246 = SURFACE_SIDE_STYLE ('',( #247 ) ) ;
#247 = SURFACE_STYLE_FILL_AREA ( #248 ) ;
#248 = FILL_AREA_STYLE ('',( #249 ) ) ;
#249 = FILL_AREA_STYLE_COLOUR ( '', #250 ) ;
#250 = COLOUR_RGB ( '',0.7960784313725489700, 0.8235294117647058400, 0.9372549019607843100 ) ;
#251 = APPLICATION_CONTEXT ( 'automotive_design' ) ;
#252 = APPLICATION_PROTOCOL_DEFINITION ( 'draft international standard', 'automotive_design', 1998, #251 ) ;
#253 = PRODUCT_DEFINITION_SHAPE ( 'NONE', 'NONE',  #256 ) ;
#254 = PRODUCT_RELATED_PRODUCT_CATEGORY ( 'part', '', ( #260 ) ) ;
#255 = PRODUCT_DEFINITION_FORMATION_WITH_SPECIFIED_SOURCE ( 'ANY', '', #260, .NOT_KNOWN. ) ;
#256 = PRODUCT_DEFINITION ( 'UNKNOWN', '', #255, #257 ) ;
#257 = PRODUCT_DEFINITION_CONTEXT ( 'detailed design', #259, 'design' ) ;
#258 = APPLICATION_PROTOCOL_DEFINITION ( 'draft international standard', 'automotive_design', 1998, #259 ) ;
#259 = APPLICATION_CONTEXT ( 'automotive_design' ) ;
#260 = PRODUCT ( '3269-E0W', '3269-E0W', '', ( #261 ) ) ;
#261 = PRODUCT_CONTEXT ( 'NONE', #251, 'mechanical' ) ;
ENDSEC;
END-ISO-10303-21;
