ISO-10303-21;
HEADER;
FILE_DESCRIPTION (( 'STEP AP203' ),
    '1' );
FILE_NAME ('Web Model 39400_39413.step',
    '2018-10-05T20:53:49',
    ( '' ),
    ( '' ),
    'SwSTEP 2.0',
    'SolidWorks 2016',
    '' );
FILE_SCHEMA (( 'CONFIG_CONTROL_DESIGN' ));
ENDSEC;

DATA;
#1 = PERSON_AND_ORGANIZATION ( #102, #138 ) ;
#2 = DIRECTION ( 'NONE',  ( 0.0000000000000000000, 0.0000000000000000000, 1.000000000000000000 ) ) ;
#3 = CARTESIAN_POINT ( 'NONE',  ( 0.0000000000000000000, 0.0000000000000000000, 0.0000000000000000000 ) ) ;
#4 = DIRECTION ( 'NONE',  ( 1.000000000000000000, 0.0000000000000000000, -0.0000000000000000000 ) ) ;
#5 = CC_DESIGN_DATE_AND_TIME_ASSIGNMENT ( #166, #6, ( #73 ) ) ;
#6 = DATE_TIME_ROLE ( 'creation_date' ) ;
#7 = PERSON_AND_ORGANIZATION_ROLE ( 'design_supplier' ) ;
#8 = CIRCLE ( 'NONE', #96, 25.39999999999999900 ) ;
#9 = PERSON_AND_ORGANIZATION_ROLE ( 'creator' ) ;
#10 = LOCAL_TIME ( 16, 53, 49.00000000000000000, #132 ) ;
#11 = APPROVAL ( #111, 'UNSPECIFIED' ) ;
#12 = MANIFOLD_SOLID_BREP ( 'Boss-Extrude1', #135 ) ;
#13 = EDGE_CURVE ( 'NONE', #140, #147, #8, .T. ) ;
#14 = ORIENTED_EDGE ( 'NONE', *, *, #171, .F. ) ;
#15 = LOCAL_TIME ( 16, 53, 49.00000000000000000, #52 ) ;
#16 = CARTESIAN_POINT ( 'NONE',  ( 25.39999999999999900, 3.110602869834276900E-015, -0.5000000000000000000 ) ) ;
#17 = CALENDAR_DATE ( 2018, 5, 10 ) ;
#18 = CARTESIAN_POINT ( 'NONE',  ( 0.0000000000000000000, 0.0000000000000000000, 0.5000000000000000000 ) ) ;
#19 = PERSON_AND_ORGANIZATION ( #102, #138 ) ;
#20 = PERSON_AND_ORGANIZATION_ROLE ( 'creator' ) ;
#21 = EDGE_CURVE ( 'NONE', #147, #172, #48, .T. ) ;
#22 = SECURITY_CLASSIFICATION_LEVEL ( 'unclassified' ) ;
#23 = ORIENTED_EDGE ( 'NONE', *, *, #21, .T. ) ;
#24 = APPROVAL_DATE_TIME ( #57, #11 ) ;
#25 = DATE_AND_TIME ( #60, #10 ) ;
#26 = PERSON_AND_ORGANIZATION ( #102, #138 ) ;
#27 = ADVANCED_BREP_SHAPE_REPRESENTATION ( 'Web Model 39400_39413', ( #12, #121 ), #105 ) ;
#28 = DATE_AND_TIME ( #17, #120 ) ;
#29 = EDGE_CURVE ( 'NONE', #140, #128, #118, .T. ) ;
#30 = CARTESIAN_POINT ( 'NONE',  ( 0.0000000000000000000, 0.0000000000000000000, 0.5000000000000000000 ) ) ;
#31 = CARTESIAN_POINT ( 'NONE',  ( 25.39999999999999900, 3.110602869834276900E-015, 0.5000000000000000000 ) ) ;
#32 = PLANE ( 'NONE',  #64 ) ;
#33 = CARTESIAN_POINT ( 'NONE',  ( 0.0000000000000000000, 0.0000000000000000000, -0.5000000000000000000 ) ) ;
#34 = FACE_OUTER_BOUND ( 'NONE', #68, .T. ) ;
#35 = CC_DESIGN_PERSON_AND_ORGANIZATION_ASSIGNMENT ( #26, #20, ( #74 ) ) ;
#36 = PERSON_AND_ORGANIZATION_ROLE ( 'classification_officer' ) ;
#37 = FACE_OUTER_BOUND ( 'NONE', #153, .T. ) ;
#38 = MECHANICAL_CONTEXT ( 'NONE', #143, 'mechanical' ) ;
#39 = ORIENTED_EDGE ( 'NONE', *, *, #142, .F. ) ;
#40 = ADVANCED_FACE ( 'NONE', ( #71 ), #91, .T. ) ;
#41 = PRODUCT_RELATED_PRODUCT_CATEGORY ( 'detail', '', ( #173 ) ) ;
#42 = DESIGN_CONTEXT ( 'detailed design', #58, 'design' ) ;
#43 = PLANE ( 'NONE',  #151 ) ;
#44 = COORDINATED_UNIVERSAL_TIME_OFFSET ( 5, 0, .BEHIND. ) ;
#45 = ADVANCED_FACE ( 'NONE', ( #34 ), #32, .F. ) ;
#46 = DIRECTION ( 'NONE',  ( 0.0000000000000000000, 0.0000000000000000000, 1.000000000000000000 ) ) ;
#47 = CARTESIAN_POINT ( 'NONE',  ( 0.0000000000000000000, 0.0000000000000000000, -0.5000000000000000000 ) ) ;
#48 = LINE ( 'NONE', #150, #100 ) ;
#49 = AXIS2_PLACEMENT_3D ( 'NONE', #47, #117, #97 ) ;
#50 = AXIS2_PLACEMENT_3D ( 'NONE', #124, #67, #165 ) ;
#51 = CALENDAR_DATE ( 2018, 5, 10 ) ;
#52 = COORDINATED_UNIVERSAL_TIME_OFFSET ( 5, 0, .BEHIND. ) ;
#53 = CC_DESIGN_PERSON_AND_ORGANIZATION_ASSIGNMENT ( #155, #7, ( #74 ) ) ;
#54 = APPROVAL_PERSON_ORGANIZATION ( #19, #11, #115 ) ;
#55 = CARTESIAN_POINT ( 'NONE',  ( 0.0000000000000000000, 0.0000000000000000000, -0.5000000000000000000 ) ) ;
#56 = AXIS2_PLACEMENT_3D ( 'NONE', #55, #2, #109 ) ;
#57 = DATE_AND_TIME ( #133, #167 ) ;
#58 = APPLICATION_CONTEXT ( 'configuration controlled 3d designs of mechanical parts and assemblies' ) ;
#59 = CIRCLE ( 'NONE', #49, 25.39999999999999900 ) ;
#60 = CALENDAR_DATE ( 2018, 5, 10 ) ;
#61 = CC_DESIGN_APPROVAL ( #160, ( #119 ) ) ;
#62 = PERSON_AND_ORGANIZATION ( #102, #138 ) ;
#63 = EDGE_LOOP ( 'NONE', ( #83, #77 ) ) ;
#64 = AXIS2_PLACEMENT_3D ( 'NONE', #33, #79, #4 ) ;
#65 = ORIENTED_EDGE ( 'NONE', *, *, #142, .T. ) ;
#66 = CARTESIAN_POINT ( 'NONE',  ( -25.39999999999999900, 0.0000000000000000000, -0.5000000000000000000 ) ) ;
#67 = DIRECTION ( 'NONE',  ( 0.0000000000000000000, 0.0000000000000000000, 1.000000000000000000 ) ) ;
#68 = EDGE_LOOP ( 'NONE', ( #39, #14 ) ) ;
#69 = APPROVAL_STATUS ( 'not_yet_approved' ) ;
#70 = PERSON_AND_ORGANIZATION_ROLE ( 'design_owner' ) ;
#71 = FACE_OUTER_BOUND ( 'NONE', #175, .T. ) ;
#72 = APPROVAL_ROLE ( '' ) ;
#73 = PRODUCT_DEFINITION ( 'UNKNOWN', '', #74, #42 ) ;
#74 = PRODUCT_DEFINITION_FORMATION_WITH_SPECIFIED_SOURCE ( 'ANY', '', #173, .NOT_KNOWN. ) ;
#75 = VECTOR ( 'NONE', #149, 1000.000000000000000 ) ;
#76 = APPROVAL_DATE_TIME ( #25, #160 ) ;
#77 = ORIENTED_EDGE ( 'NONE', *, *, #13, .T. ) ;
#78 = CC_DESIGN_APPROVAL ( #81, ( #74 ) ) ;
#79 = DIRECTION ( 'NONE',  ( 0.0000000000000000000, 0.0000000000000000000, 1.000000000000000000 ) ) ;
#80 = DIRECTION ( 'NONE',  ( -1.000000000000000000, 0.0000000000000000000, 0.0000000000000000000 ) ) ;
#81 = APPROVAL ( #69, 'UNSPECIFIED' ) ;
#82 = DIRECTION ( 'NONE',  ( 1.000000000000000000, 0.0000000000000000000, 0.0000000000000000000 ) ) ;
#83 = ORIENTED_EDGE ( 'NONE', *, *, #108, .T. ) ;
#84 =( NAMED_UNIT ( * ) SI_UNIT ( $, .STERADIAN. ) SOLID_ANGLE_UNIT ( ) );
#85 = LOCAL_TIME ( 16, 53, 49.00000000000000000, #116 ) ;
#86 = UNCERTAINTY_MEASURE_WITH_UNIT (LENGTH_MEASURE( 1.000000000000000100E-005 ), #126, 'distance_accuracy_value', 'NONE');
#87 = ORIENTED_EDGE ( 'NONE', *, *, #29, .T. ) ;
#88 = CC_DESIGN_PERSON_AND_ORGANIZATION_ASSIGNMENT ( #122, #9, ( #73 ) ) ;
#89 = CC_DESIGN_DATE_AND_TIME_ASSIGNMENT ( #134, #168, ( #119 ) ) ;
#90 = DIRECTION ( 'NONE',  ( -0.0000000000000000000, -0.0000000000000000000, -1.000000000000000000 ) ) ;
#91 = CYLINDRICAL_SURFACE ( 'NONE', #145, 25.39999999999999900 ) ;
#92 = DIRECTION ( 'NONE',  ( -0.0000000000000000000, -0.0000000000000000000, -1.000000000000000000 ) ) ;
#93 = DIRECTION ( 'NONE',  ( 1.000000000000000000, 0.0000000000000000000, -0.0000000000000000000 ) ) ;
#94 = DIRECTION ( 'NONE',  ( -0.0000000000000000000, -0.0000000000000000000, -1.000000000000000000 ) ) ;
#95 = APPLICATION_PROTOCOL_DEFINITION ( 'international standard', 'config_control_design', 1994, #143 ) ;
#96 = AXIS2_PLACEMENT_3D ( 'NONE', #30, #141, #107 ) ;
#97 = DIRECTION ( 'NONE',  ( 1.000000000000000000, 0.0000000000000000000, 0.0000000000000000000 ) ) ;
#98 = CIRCLE ( 'NONE', #50, 25.39999999999999900 ) ;
#99 = CC_DESIGN_APPROVAL ( #11, ( #73 ) ) ;
#100 = VECTOR ( 'NONE', #90, 1000.000000000000000 ) ;
#101 = AXIS2_PLACEMENT_3D ( 'NONE', #18, #94, #123 ) ;
#102 = PERSON ( 'UNSPECIFIED', 'UNSPECIFIED', 'UNSPECIFIED', ('UNSPECIFIED'), ('UNSPECIFIED'), ('UNSPECIFIED') ) ;
#103 = COORDINATED_UNIVERSAL_TIME_OFFSET ( 5, 0, .BEHIND. ) ;
#104 = CYLINDRICAL_SURFACE ( 'NONE', #101, 25.39999999999999900 ) ;
#105 =( GEOMETRIC_REPRESENTATION_CONTEXT ( 3 ) GLOBAL_UNCERTAINTY_ASSIGNED_CONTEXT ( ( #86 ) ) GLOBAL_UNIT_ASSIGNED_CONTEXT ( ( #126, #152, #84 ) ) REPRESENTATION_CONTEXT ( 'NONE', 'WORKASPACE' ) );
#106 = ADVANCED_FACE ( 'NONE', ( #37 ), #104, .T. ) ;
#107 = DIRECTION ( 'NONE',  ( 1.000000000000000000, 0.0000000000000000000, 0.0000000000000000000 ) ) ;
#108 = EDGE_CURVE ( 'NONE', #147, #140, #98, .T. ) ;
#109 = DIRECTION ( 'NONE',  ( 1.000000000000000000, 0.0000000000000000000, 0.0000000000000000000 ) ) ;
#110 = CARTESIAN_POINT ( 'NONE',  ( 0.0000000000000000000, 0.0000000000000000000, 0.5000000000000000000 ) ) ;
#111 = APPROVAL_STATUS ( 'not_yet_approved' ) ;
#112 = CC_DESIGN_SECURITY_CLASSIFICATION ( #119, ( #74 ) ) ;
#113 = APPROVAL_PERSON_ORGANIZATION ( #146, #81, #72 ) ;
#114 = ORIENTED_EDGE ( 'NONE', *, *, #21, .F. ) ;
#115 = APPROVAL_ROLE ( '' ) ;
#116 = COORDINATED_UNIVERSAL_TIME_OFFSET ( 5, 0, .BEHIND. ) ;
#117 = DIRECTION ( 'NONE',  ( 0.0000000000000000000, 0.0000000000000000000, 1.000000000000000000 ) ) ;
#118 = LINE ( 'NONE', #164, #75 ) ;
#119 = SECURITY_CLASSIFICATION ( '', '', #22 ) ;
#120 = LOCAL_TIME ( 16, 53, 49.00000000000000000, #44 ) ;
#121 = AXIS2_PLACEMENT_3D ( 'NONE', #3, #154, #82 ) ;
#122 = PERSON_AND_ORGANIZATION ( #102, #138 ) ;
#123 = DIRECTION ( 'NONE',  ( -1.000000000000000000, 0.0000000000000000000, 0.0000000000000000000 ) ) ;
#124 = CARTESIAN_POINT ( 'NONE',  ( 0.0000000000000000000, 0.0000000000000000000, 0.5000000000000000000 ) ) ;
#125 = ORIENTED_EDGE ( 'NONE', *, *, #29, .F. ) ;
#126 =( LENGTH_UNIT ( ) NAMED_UNIT ( * ) SI_UNIT ( .MILLI., .METRE. ) );
#127 = APPROVAL_STATUS ( 'not_yet_approved' ) ;
#128 = VERTEX_POINT ( 'NONE', #16 ) ;
#129 = APPLICATION_PROTOCOL_DEFINITION ( 'international standard', 'config_control_design', 1994, #58 ) ;
#130 = APPROVAL_ROLE ( '' ) ;
#131 = CC_DESIGN_PERSON_AND_ORGANIZATION_ASSIGNMENT ( #174, #36, ( #119 ) ) ;
#132 = COORDINATED_UNIVERSAL_TIME_OFFSET ( 5, 0, .BEHIND. ) ;
#133 = CALENDAR_DATE ( 2018, 5, 10 ) ;
#134 = DATE_AND_TIME ( #144, #85 ) ;
#135 = CLOSED_SHELL ( 'NONE', ( #106, #40, #136, #45 ) ) ;
#136 = ADVANCED_FACE ( 'NONE', ( #159 ), #43, .T. ) ;
#137 = CARTESIAN_POINT ( 'NONE',  ( 0.0000000000000000000, 0.0000000000000000000, 0.5000000000000000000 ) ) ;
#138 = ORGANIZATION ( 'UNSPECIFIED', 'UNSPECIFIED', '' ) ;
#139 = CARTESIAN_POINT ( 'NONE',  ( -25.39999999999999900, 0.0000000000000000000, 0.5000000000000000000 ) ) ;
#140 = VERTEX_POINT ( 'NONE', #31 ) ;
#141 = DIRECTION ( 'NONE',  ( 0.0000000000000000000, 0.0000000000000000000, 1.000000000000000000 ) ) ;
#142 = EDGE_CURVE ( 'NONE', #172, #128, #157, .T. ) ;
#143 = APPLICATION_CONTEXT ( 'configuration controlled 3d designs of mechanical parts and assemblies' ) ;
#144 = CALENDAR_DATE ( 2018, 5, 10 ) ;
#145 = AXIS2_PLACEMENT_3D ( 'NONE', #137, #92, #80 ) ;
#146 = PERSON_AND_ORGANIZATION ( #102, #138 ) ;
#147 = VERTEX_POINT ( 'NONE', #139 ) ;
#148 = ORIENTED_EDGE ( 'NONE', *, *, #171, .T. ) ;
#149 = DIRECTION ( 'NONE',  ( -0.0000000000000000000, -0.0000000000000000000, -1.000000000000000000 ) ) ;
#150 = CARTESIAN_POINT ( 'NONE',  ( -25.39999999999999900, 0.0000000000000000000, 0.5000000000000000000 ) ) ;
#151 = AXIS2_PLACEMENT_3D ( 'NONE', #110, #46, #93 ) ;
#152 =( NAMED_UNIT ( * ) PLANE_ANGLE_UNIT ( ) SI_UNIT ( $, .RADIAN. ) );
#153 = EDGE_LOOP ( 'NONE', ( #161, #87, #148, #114 ) ) ;
#154 = DIRECTION ( 'NONE',  ( 0.0000000000000000000, 0.0000000000000000000, 1.000000000000000000 ) ) ;
#155 = PERSON_AND_ORGANIZATION ( #102, #138 ) ;
#156 = PRODUCT_DEFINITION_SHAPE ( 'NONE', 'NONE',  #73 ) ;
#157 = CIRCLE ( 'NONE', #56, 25.39999999999999900 ) ;
#158 = CC_DESIGN_PERSON_AND_ORGANIZATION_ASSIGNMENT ( #62, #70, ( #173 ) ) ;
#159 = FACE_OUTER_BOUND ( 'NONE', #63, .T. ) ;
#160 = APPROVAL ( #127, 'UNSPECIFIED' ) ;
#161 = ORIENTED_EDGE ( 'NONE', *, *, #13, .F. ) ;
#162 = APPROVAL_DATE_TIME ( #28, #81 ) ;
#163 = SHAPE_DEFINITION_REPRESENTATION ( #156, #27 ) ;
#164 = CARTESIAN_POINT ( 'NONE',  ( 25.39999999999999900, 3.110602869834276900E-015, 0.5000000000000000000 ) ) ;
#165 = DIRECTION ( 'NONE',  ( 1.000000000000000000, 0.0000000000000000000, 0.0000000000000000000 ) ) ;
#166 = DATE_AND_TIME ( #51, #15 ) ;
#167 = LOCAL_TIME ( 16, 53, 49.00000000000000000, #103 ) ;
#168 = DATE_TIME_ROLE ( 'classification_date' ) ;
#169 = ORIENTED_EDGE ( 'NONE', *, *, #108, .F. ) ;
#170 = APPROVAL_PERSON_ORGANIZATION ( #1, #160, #130 ) ;
#171 = EDGE_CURVE ( 'NONE', #128, #172, #59, .T. ) ;
#172 = VERTEX_POINT ( 'NONE', #66 ) ;
#173 = PRODUCT ( 'Web Model 39400_39413', 'Web Model 39400_39413', '', ( #38 ) ) ;
#174 = PERSON_AND_ORGANIZATION ( #102, #138 ) ;
#175 = EDGE_LOOP ( 'NONE', ( #125, #169, #23, #65 ) ) ;
ENDSEC;
END-ISO-10303-21;
