ISO-10303-21;
HEADER;
FILE_DESCRIPTION (( 'STEP AP203' ),
    '1' );
FILE_NAME ('Web Model 31432_46677.step',
    '2017-04-10T18:14:40',
    ( '' ),
    ( '' ),
    'SwSTEP 2.0',
    'SolidWorks 2016',
    '' );
FILE_SCHEMA (( 'CONFIG_CONTROL_DESIGN' ));
ENDSEC;

DATA;
#1 = SECURITY_CLASSIFICATION ( '', '', #170 ) ;
#2 = DATE_AND_TIME ( #124, #62 ) ;
#3 = PERSON_AND_ORGANIZATION ( #187, #182 ) ;
#4 = VERTEX_POINT ( 'NONE', #69 ) ;
#5 = AXIS2_PLACEMENT_3D ( 'NONE', #143, #49, #188 ) ;
#6 = ORIENTED_EDGE ( 'NONE', *, *, #211, .F. ) ;
#7 = APPROVAL_STATUS ( 'not_yet_approved' ) ;
#8 = APPROVAL_PERSON_ORGANIZATION ( #3, #44, #122 ) ;
#9 = ORIENTED_EDGE ( 'NONE', *, *, #215, .F. ) ;
#10 = DIRECTION ( 'NONE',  ( 0.0000000000000000000, -1.000000000000000000, 0.0000000000000000000 ) ) ;
#11 = PERSON_AND_ORGANIZATION_ROLE ( 'design_supplier' ) ;
#12 = PERSON_AND_ORGANIZATION ( #187, #182 ) ;
#13 = ADVANCED_FACE ( 'NONE', ( #17 ), #194, .F. ) ;
#14 = PERSON_AND_ORGANIZATION ( #187, #182 ) ;
#15 = ORIENTED_EDGE ( 'NONE', *, *, #135, .T. ) ;
#16 = APPLICATION_CONTEXT ( 'configuration controlled 3d designs of mechanical parts and assemblies' ) ;
#17 = FACE_OUTER_BOUND ( 'NONE', #18, .T. ) ;
#18 = EDGE_LOOP ( 'NONE', ( #192, #207, #26, #61 ) ) ;
#19 = LOCAL_TIME ( 14, 14, 40.00000000000000000, #202 ) ;
#20 = PLANE ( 'NONE',  #64 ) ;
#21 = VECTOR ( 'NONE', #40, 1000.000000000000000 ) ;
#22 = CC_DESIGN_PERSON_AND_ORGANIZATION_ASSIGNMENT ( #144, #11, ( #32 ) ) ;
#23 = PRODUCT_RELATED_PRODUCT_CATEGORY ( 'detail', '', ( #150 ) ) ;
#24 = ADVANCED_FACE ( 'NONE', ( #121 ), #167, .F. ) ;
#25 = DIRECTION ( 'NONE',  ( -1.369518533665900100E-016, 1.000000000000000000, 0.0000000000000000000 ) ) ;
#26 = ORIENTED_EDGE ( 'NONE', *, *, #102, .F. ) ;
#27 = APPROVAL ( #35, 'UNSPECIFIED' ) ;
#28 = DIRECTION ( 'NONE',  ( -1.369518533665900300E-016, 1.000000000000000000, -0.0000000000000000000 ) ) ;
#29 = VERTEX_POINT ( 'NONE', #165 ) ;
#30 = MANIFOLD_SOLID_BREP ( 'Boss-Extrude1', #203 ) ;
#31 = DATE_AND_TIME ( #77, #19 ) ;
#32 = PRODUCT_DEFINITION_FORMATION_WITH_SPECIFIED_SOURCE ( 'ANY', '', #150, .NOT_KNOWN. ) ;
#33 = VECTOR ( 'NONE', #54, 1000.000000000000000 ) ;
#34 = DIRECTION ( 'NONE',  ( 0.0000000000000000000, 1.000000000000000000, 0.0000000000000000000 ) ) ;
#35 = APPROVAL_STATUS ( 'not_yet_approved' ) ;
#36 = CARTESIAN_POINT ( 'NONE',  ( 25.49999999999998600, 38.00000000000000700, 1.500000000000000000 ) ) ;
#37 = DATE_TIME_ROLE ( 'classification_date' ) ;
#38 = DIRECTION ( 'NONE',  ( -1.000000000000000000, -0.0000000000000000000, -0.0000000000000000000 ) ) ;
#39 = LINE ( 'NONE', #195, #104 ) ;
#40 = DIRECTION ( 'NONE',  ( -0.0000000000000000000, -0.0000000000000000000, -1.000000000000000000 ) ) ;
#41 = ORIENTED_EDGE ( 'NONE', *, *, #147, .T. ) ;
#42 = CARTESIAN_POINT ( 'NONE',  ( -25.50000000000000000, -37.99999999999999300, 1.500000000000000000 ) ) ;
#43 = ORIENTED_EDGE ( 'NONE', *, *, #120, .F. ) ;
#44 = APPROVAL ( #216, 'UNSPECIFIED' ) ;
#45 = CARTESIAN_POINT ( 'NONE',  ( -25.50000000000000000, -37.99999999999999300, 1.500000000000000000 ) ) ;
#46 = EDGE_LOOP ( 'NONE', ( #205, #9, #136, #111 ) ) ;
#47 = CARTESIAN_POINT ( 'NONE',  ( -25.50000000000000000, -37.99999999999999300, -1.500000000000000000 ) ) ;
#48 = EDGE_LOOP ( 'NONE', ( #41, #6, #43, #116 ) ) ;
#49 = DIRECTION ( 'NONE',  ( 0.0000000000000000000, 0.0000000000000000000, 1.000000000000000000 ) ) ;
#50 = FACE_OUTER_BOUND ( 'NONE', #98, .T. ) ;
#51 =( NAMED_UNIT ( * ) PLANE_ANGLE_UNIT ( ) SI_UNIT ( $, .RADIAN. ) );
#52 = AXIS2_PLACEMENT_3D ( 'NONE', #66, #227, #236 ) ;
#53 = CARTESIAN_POINT ( 'NONE',  ( -25.50000000000000700, 38.00000000000000700, 1.500000000000000000 ) ) ;
#54 = DIRECTION ( 'NONE',  ( -1.000000000000000000, -0.0000000000000000000, -0.0000000000000000000 ) ) ;
#55 = APPROVAL_DATE_TIME ( #129, #44 ) ;
#56 = PERSON_AND_ORGANIZATION ( #187, #182 ) ;
#57 =( GEOMETRIC_REPRESENTATION_CONTEXT ( 3 ) GLOBAL_UNCERTAINTY_ASSIGNED_CONTEXT ( ( #237 ) ) GLOBAL_UNIT_ASSIGNED_CONTEXT ( ( #190, #51, #138 ) ) REPRESENTATION_CONTEXT ( 'NONE', 'WORKASPACE' ) );
#58 = COORDINATED_UNIVERSAL_TIME_OFFSET ( 5, 0, .BEHIND. ) ;
#59 = CARTESIAN_POINT ( 'NONE',  ( 25.49999999999998600, 38.00000000000000700, 1.500000000000000000 ) ) ;
#60 = VECTOR ( 'NONE', #159, 1000.000000000000000 ) ;
#61 = ORIENTED_EDGE ( 'NONE', *, *, #215, .T. ) ;
#62 = LOCAL_TIME ( 14, 14, 40.00000000000000000, #85 ) ;
#63 = ORIENTED_EDGE ( 'NONE', *, *, #193, .T. ) ;
#64 = AXIS2_PLACEMENT_3D ( 'NONE', #149, #10, #105 ) ;
#65 = ADVANCED_FACE ( 'NONE', ( #172 ), #137, .F. ) ;
#66 = CARTESIAN_POINT ( 'NONE',  ( 0.0000000000000000000, 0.0000000000000000000, 1.500000000000000000 ) ) ;
#67 = ORIENTED_EDGE ( 'NONE', *, *, #193, .F. ) ;
#68 = DIRECTION ( 'NONE',  ( 1.369518533665900100E-016, -1.000000000000000000, 0.0000000000000000000 ) ) ;
#69 = CARTESIAN_POINT ( 'NONE',  ( -25.50000000000000700, 38.00000000000000700, -1.500000000000000000 ) ) ;
#70 = EDGE_CURVE ( 'NONE', #29, #4, #166, .T. ) ;
#71 = APPROVAL_ROLE ( '' ) ;
#72 = CARTESIAN_POINT ( 'NONE',  ( 0.0000000000000000000, 0.0000000000000000000, -1.500000000000000000 ) ) ;
#73 = VECTOR ( 'NONE', #132, 1000.000000000000000 ) ;
#74 = VERTEX_POINT ( 'NONE', #91 ) ;
#75 = AXIS2_PLACEMENT_3D ( 'NONE', #53, #152, #25 ) ;
#76 = DATE_AND_TIME ( #151, #90 ) ;
#77 = CALENDAR_DATE ( 2017, 10, 4 ) ;
#78 = CARTESIAN_POINT ( 'NONE',  ( 25.49999999999998600, 38.00000000000000700, -1.500000000000000000 ) ) ;
#79 = LOCAL_TIME ( 14, 14, 40.00000000000000000, #131 ) ;
#80 = FACE_OUTER_BOUND ( 'NONE', #46, .T. ) ;
#81 = APPROVAL_DATE_TIME ( #2, #27 ) ;
#82 = LINE ( 'NONE', #59, #21 ) ;
#83 = EDGE_CURVE ( 'NONE', #88, #230, #199, .T. ) ;
#84 = APPROVAL_ROLE ( '' ) ;
#85 = COORDINATED_UNIVERSAL_TIME_OFFSET ( 5, 0, .BEHIND. ) ;
#86 = AXIS2_PLACEMENT_3D ( 'NONE', #45, #34, #180 ) ;
#87 = VECTOR ( 'NONE', #197, 1000.000000000000000 ) ;
#88 = VERTEX_POINT ( 'NONE', #42 ) ;
#89 = LOCAL_TIME ( 14, 14, 40.00000000000000000, #58 ) ;
#90 = LOCAL_TIME ( 14, 14, 40.00000000000000000, #161 ) ;
#91 = CARTESIAN_POINT ( 'NONE',  ( 25.49999999999999600, -37.99999999999999300, 1.500000000000000000 ) ) ;
#92 = VECTOR ( 'NONE', #134, 1000.000000000000000 ) ;
#93 = VERTEX_POINT ( 'NONE', #184 ) ;
#94 = APPROVAL_DATE_TIME ( #76, #130 ) ;
#95 = APPLICATION_PROTOCOL_DEFINITION ( 'international standard', 'config_control_design', 1994, #174 ) ;
#96 = ADVANCED_FACE ( 'NONE', ( #109 ), #103, .F. ) ;
#97 = VECTOR ( 'NONE', #200, 1000.000000000000000 ) ;
#98 = EDGE_LOOP ( 'NONE', ( #112, #15, #108, #63 ) ) ;
#99 = AXIS2_PLACEMENT_3D ( 'NONE', #72, #183, #118 ) ;
#100 = ORIENTED_EDGE ( 'NONE', *, *, #83, .T. ) ;
#101 = DIRECTION ( 'NONE',  ( -1.000000000000000000, -1.369518533665900100E-016, 0.0000000000000000000 ) ) ;
#102 = EDGE_CURVE ( 'NONE', #93, #88, #153, .T. ) ;
#103 = PLANE ( 'NONE',  #114 ) ;
#104 = VECTOR ( 'NONE', #235, 1000.000000000000000 ) ;
#105 = DIRECTION ( 'NONE',  ( 0.0000000000000000000, -0.0000000000000000000, -1.000000000000000000 ) ) ;
#106 = APPLICATION_PROTOCOL_DEFINITION ( 'international standard', 'config_control_design', 1994, #16 ) ;
#107 = CARTESIAN_POINT ( 'NONE',  ( -25.50000000000000000, -37.99999999999999300, 1.500000000000000000 ) ) ;
#108 = ORIENTED_EDGE ( 'NONE', *, *, #102, .T. ) ;
#109 = FACE_OUTER_BOUND ( 'NONE', #48, .T. ) ;
#110 = CARTESIAN_POINT ( 'NONE',  ( -25.50000000000000700, 38.00000000000000700, -1.500000000000000000 ) ) ;
#111 = ORIENTED_EDGE ( 'NONE', *, *, #211, .T. ) ;
#112 = ORIENTED_EDGE ( 'NONE', *, *, #120, .T. ) ;
#113 = VECTOR ( 'NONE', #115, 1000.000000000000000 ) ;
#114 = AXIS2_PLACEMENT_3D ( 'NONE', #160, #101, #68 ) ;
#115 = DIRECTION ( 'NONE',  ( 1.369518533665900300E-016, -1.000000000000000000, 0.0000000000000000000 ) ) ;
#116 = ORIENTED_EDGE ( 'NONE', *, *, #229, .T. ) ;
#117 = CARTESIAN_POINT ( 'NONE',  ( 25.49999999999999600, -37.99999999999999300, -1.500000000000000000 ) ) ;
#118 = DIRECTION ( 'NONE',  ( 1.000000000000000000, 0.0000000000000000000, 0.0000000000000000000 ) ) ;
#119 = CC_DESIGN_APPROVAL ( #27, ( #1 ) ) ;
#120 = EDGE_CURVE ( 'NONE', #74, #201, #177, .T. ) ;
#121 = FACE_OUTER_BOUND ( 'NONE', #148, .T. ) ;
#122 = APPROVAL_ROLE ( '' ) ;
#123 = CARTESIAN_POINT ( 'NONE',  ( -25.50000000000000700, 38.00000000000000700, 1.500000000000000000 ) ) ;
#124 = CALENDAR_DATE ( 2017, 10, 4 ) ;
#125 = PERSON_AND_ORGANIZATION_ROLE ( 'creator' ) ;
#126 = EDGE_LOOP ( 'NONE', ( #133, #146, #158, #145 ) ) ;
#127 = APPROVAL_PERSON_ORGANIZATION ( #12, #27, #71 ) ;
#128 = LINE ( 'NONE', #189, #73 ) ;
#129 = DATE_AND_TIME ( #228, #79 ) ;
#130 = APPROVAL ( #7, 'UNSPECIFIED' ) ;
#131 = COORDINATED_UNIVERSAL_TIME_OFFSET ( 5, 0, .BEHIND. ) ;
#132 = DIRECTION ( 'NONE',  ( -0.0000000000000000000, -0.0000000000000000000, -1.000000000000000000 ) ) ;
#133 = ORIENTED_EDGE ( 'NONE', *, *, #147, .F. ) ;
#134 = DIRECTION ( 'NONE',  ( 1.000000000000000000, 0.0000000000000000000, 0.0000000000000000000 ) ) ;
#135 = EDGE_CURVE ( 'NONE', #201, #93, #140, .T. ) ;
#136 = ORIENTED_EDGE ( 'NONE', *, *, #135, .F. ) ;
#137 = PLANE ( 'NONE',  #99 ) ;
#138 =( NAMED_UNIT ( * ) SI_UNIT ( $, .STERADIAN. ) SOLID_ANGLE_UNIT ( ) );
#139 = CC_DESIGN_APPROVAL ( #130, ( #168 ) ) ;
#140 = LINE ( 'NONE', #175, #33 ) ;
#141 = CC_DESIGN_PERSON_AND_ORGANIZATION_ASSIGNMENT ( #156, #125, ( #32 ) ) ;
#142 = CC_DESIGN_PERSON_AND_ORGANIZATION_ASSIGNMENT ( #14, #198, ( #168 ) ) ;
#143 = CARTESIAN_POINT ( 'NONE',  ( 0.0000000000000000000, 0.0000000000000000000, 0.0000000000000000000 ) ) ;
#144 = PERSON_AND_ORGANIZATION ( #187, #182 ) ;
#145 = ORIENTED_EDGE ( 'NONE', *, *, #70, .F. ) ;
#146 = ORIENTED_EDGE ( 'NONE', *, *, #222, .F. ) ;
#147 = EDGE_CURVE ( 'NONE', #210, #29, #169, .T. ) ;
#148 = EDGE_LOOP ( 'NONE', ( #232, #234, #67, #100 ) ) ;
#149 = CARTESIAN_POINT ( 'NONE',  ( -25.50000000000000700, 38.00000000000000700, 1.500000000000000000 ) ) ;
#150 = PRODUCT ( 'Web Model 31432_46677', 'Web Model 31432_46677', '', ( #196 ) ) ;
#151 = CALENDAR_DATE ( 2017, 10, 4 ) ;
#152 = DIRECTION ( 'NONE',  ( 1.000000000000000000, 1.369518533665900100E-016, -0.0000000000000000000 ) ) ;
#153 = LINE ( 'NONE', #123, #113 ) ;
#154 = CARTESIAN_POINT ( 'NONE',  ( -25.50000000000000700, 38.00000000000000700, 1.500000000000000000 ) ) ;
#155 = CARTESIAN_POINT ( 'NONE',  ( -25.50000000000000700, 38.00000000000000700, -1.500000000000000000 ) ) ;
#156 = PERSON_AND_ORGANIZATION ( #187, #182 ) ;
#157 = LINE ( 'NONE', #110, #60 ) ;
#158 = ORIENTED_EDGE ( 'NONE', *, *, #219, .F. ) ;
#159 = DIRECTION ( 'NONE',  ( 1.369518533665900300E-016, -1.000000000000000000, 0.0000000000000000000 ) ) ;
#160 = CARTESIAN_POINT ( 'NONE',  ( 25.49999999999998600, 38.00000000000000700, 1.500000000000000000 ) ) ;
#161 = COORDINATED_UNIVERSAL_TIME_OFFSET ( 5, 0, .BEHIND. ) ;
#162 = VECTOR ( 'NONE', #181, 1000.000000000000000 ) ;
#163 = CC_DESIGN_SECURITY_CLASSIFICATION ( #1, ( #32 ) ) ;
#164 = LINE ( 'NONE', #47, #92 ) ;
#165 = CARTESIAN_POINT ( 'NONE',  ( 25.49999999999998600, 38.00000000000000700, -1.500000000000000000 ) ) ;
#166 = LINE ( 'NONE', #155, #226 ) ;
#167 = PLANE ( 'NONE',  #86 ) ;
#168 = PRODUCT_DEFINITION ( 'UNKNOWN', '', #32, #224 ) ;
#169 = LINE ( 'NONE', #78, #97 ) ;
#170 = SECURITY_CLASSIFICATION_LEVEL ( 'unclassified' ) ;
#171 = CC_DESIGN_DATE_AND_TIME_ASSIGNMENT ( #31, #37, ( #1 ) ) ;
#172 = FACE_OUTER_BOUND ( 'NONE', #126, .T. ) ;
#173 = PLANE ( 'NONE',  #52 ) ;
#174 = APPLICATION_CONTEXT ( 'configuration controlled 3d designs of mechanical parts and assemblies' ) ;
#175 = CARTESIAN_POINT ( 'NONE',  ( -25.50000000000000700, 38.00000000000000700, 1.500000000000000000 ) ) ;
#176 = LINE ( 'NONE', #154, #162 ) ;
#177 = LINE ( 'NONE', #36, #212 ) ;
#178 = PERSON_AND_ORGANIZATION ( #187, #182 ) ;
#179 = DATE_TIME_ROLE ( 'creation_date' ) ;
#180 = DIRECTION ( 'NONE',  ( 0.0000000000000000000, -0.0000000000000000000, 1.000000000000000000 ) ) ;
#181 = DIRECTION ( 'NONE',  ( -0.0000000000000000000, -0.0000000000000000000, -1.000000000000000000 ) ) ;
#182 = ORGANIZATION ( 'UNSPECIFIED', 'UNSPECIFIED', '' ) ;
#183 = DIRECTION ( 'NONE',  ( -0.0000000000000000000, 0.0000000000000000000, 1.000000000000000000 ) ) ;
#184 = CARTESIAN_POINT ( 'NONE',  ( -25.50000000000000700, 38.00000000000000700, 1.500000000000000000 ) ) ;
#185 = ADVANCED_FACE ( 'NONE', ( #80 ), #20, .F. ) ;
#186 = CC_DESIGN_APPROVAL ( #44, ( #32 ) ) ;
#187 = PERSON ( 'UNSPECIFIED', 'UNSPECIFIED', 'UNSPECIFIED', ('UNSPECIFIED'), ('UNSPECIFIED'), ('UNSPECIFIED') ) ;
#188 = DIRECTION ( 'NONE',  ( 1.000000000000000000, 0.0000000000000000000, 0.0000000000000000000 ) ) ;
#189 = CARTESIAN_POINT ( 'NONE',  ( 25.49999999999999600, -37.99999999999999300, 1.500000000000000000 ) ) ;
#190 =( LENGTH_UNIT ( ) NAMED_UNIT ( * ) SI_UNIT ( .MILLI., .METRE. ) );
#191 = PERSON_AND_ORGANIZATION ( #187, #182 ) ;
#192 = ORIENTED_EDGE ( 'NONE', *, *, #219, .T. ) ;
#193 = EDGE_CURVE ( 'NONE', #88, #74, #39, .T. ) ;
#194 = PLANE ( 'NONE',  #75 ) ;
#195 = CARTESIAN_POINT ( 'NONE',  ( -25.50000000000000000, -37.99999999999999300, 1.500000000000000000 ) ) ;
#196 = MECHANICAL_CONTEXT ( 'NONE', #174, 'mechanical' ) ;
#197 = DIRECTION ( 'NONE',  ( -0.0000000000000000000, -0.0000000000000000000, -1.000000000000000000 ) ) ;
#198 = PERSON_AND_ORGANIZATION_ROLE ( 'creator' ) ;
#199 = LINE ( 'NONE', #107, #87 ) ;
#200 = DIRECTION ( 'NONE',  ( -1.369518533665900300E-016, 1.000000000000000000, -0.0000000000000000000 ) ) ;
#201 = VERTEX_POINT ( 'NONE', #220 ) ;
#202 = COORDINATED_UNIVERSAL_TIME_OFFSET ( 5, 0, .BEHIND. ) ;
#203 = CLOSED_SHELL ( 'NONE', ( #96, #185, #13, #24, #221, #65 ) ) ;
#204 = PERSON_AND_ORGANIZATION_ROLE ( 'classification_officer' ) ;
#205 = ORIENTED_EDGE ( 'NONE', *, *, #70, .T. ) ;
#206 = CARTESIAN_POINT ( 'NONE',  ( -25.50000000000000000, -37.99999999999999300, -1.500000000000000000 ) ) ;
#207 = ORIENTED_EDGE ( 'NONE', *, *, #83, .F. ) ;
#208 = SHAPE_DEFINITION_REPRESENTATION ( #225, #233 ) ;
#209 = APPROVAL_PERSON_ORGANIZATION ( #56, #130, #84 ) ;
#210 = VERTEX_POINT ( 'NONE', #117 ) ;
#211 = EDGE_CURVE ( 'NONE', #201, #29, #82, .T. ) ;
#212 = VECTOR ( 'NONE', #28, 1000.000000000000000 ) ;
#213 = CALENDAR_DATE ( 2017, 10, 4 ) ;
#214 = DATE_AND_TIME ( #213, #89 ) ;
#215 = EDGE_CURVE ( 'NONE', #93, #4, #176, .T. ) ;
#216 = APPROVAL_STATUS ( 'not_yet_approved' ) ;
#217 = CC_DESIGN_PERSON_AND_ORGANIZATION_ASSIGNMENT ( #178, #204, ( #1 ) ) ;
#218 = CC_DESIGN_PERSON_AND_ORGANIZATION_ASSIGNMENT ( #191, #223, ( #150 ) ) ;
#219 = EDGE_CURVE ( 'NONE', #4, #230, #157, .T. ) ;
#220 = CARTESIAN_POINT ( 'NONE',  ( 25.49999999999998600, 38.00000000000000700, 1.500000000000000000 ) ) ;
#221 = ADVANCED_FACE ( 'NONE', ( #50 ), #173, .T. ) ;
#222 = EDGE_CURVE ( 'NONE', #230, #210, #164, .T. ) ;
#223 = PERSON_AND_ORGANIZATION_ROLE ( 'design_owner' ) ;
#224 = DESIGN_CONTEXT ( 'detailed design', #16, 'design' ) ;
#225 = PRODUCT_DEFINITION_SHAPE ( 'NONE', 'NONE',  #168 ) ;
#226 = VECTOR ( 'NONE', #38, 1000.000000000000000 ) ;
#227 = DIRECTION ( 'NONE',  ( -0.0000000000000000000, 0.0000000000000000000, 1.000000000000000000 ) ) ;
#228 = CALENDAR_DATE ( 2017, 10, 4 ) ;
#229 = EDGE_CURVE ( 'NONE', #74, #210, #128, .T. ) ;
#230 = VERTEX_POINT ( 'NONE', #206 ) ;
#231 = CC_DESIGN_DATE_AND_TIME_ASSIGNMENT ( #214, #179, ( #168 ) ) ;
#232 = ORIENTED_EDGE ( 'NONE', *, *, #222, .T. ) ;
#233 = ADVANCED_BREP_SHAPE_REPRESENTATION ( 'Web Model 31432_46677', ( #30, #5 ), #57 ) ;
#234 = ORIENTED_EDGE ( 'NONE', *, *, #229, .F. ) ;
#235 = DIRECTION ( 'NONE',  ( 1.000000000000000000, 0.0000000000000000000, 0.0000000000000000000 ) ) ;
#236 = DIRECTION ( 'NONE',  ( 1.000000000000000000, 0.0000000000000000000, 0.0000000000000000000 ) ) ;
#237 = UNCERTAINTY_MEASURE_WITH_UNIT (LENGTH_MEASURE( 1.000000000000000100E-005 ), #190, 'distance_accuracy_value', 'NONE');
ENDSEC;
END-ISO-10303-21;
