ISO-10303-21;
HEADER;
FILE_DESCRIPTION (( 'STEP AP214' ),
    '1' );
FILE_NAME ('23301.step',
    '2022-09-30T13:18:31',
    ( '' ),
    ( '' ),
    'SwSTEP 2.0',
    'SolidWorks 2021',
    '' );
FILE_SCHEMA (( 'AUTOMOTIVE_DESIGN' ));
ENDSEC;

DATA;
#1 = EDGE_LOOP ( 'NONE', ( #10, #54, #96, #80 ) ) ;
#2 = PRESENTATION_STYLE_ASSIGNMENT (( #104 ) ) ;
#3 = CARTESIAN_POINT ( 'NONE',  ( 0.000000000000000000, 0.000000000000000000, -1.000000000000000000 ) ) ;
#4 =( NAMED_UNIT ( * ) PLANE_ANGLE_UNIT ( ) SI_UNIT ( $, .RADIAN. ) );
#5 = UNCERTAINTY_MEASURE_WITH_UNIT (LENGTH_MEASURE( 1.000000000000000082E-05 ), #68, 'distance_accuracy_value', 'NONE');
#6 = CARTESIAN_POINT ( 'NONE',  ( 0.000000000000000000, 0.000000000000000000, 0.000000000000000000 ) ) ;
#7 = EDGE_CURVE ( 'NONE', #87, #65, #22, .T. ) ;
#8 = PRODUCT_CONTEXT ( 'NONE', #67, 'mechanical' ) ;
#9 = APPLICATION_CONTEXT ( 'automotive_design' ) ;
#10 = ORIENTED_EDGE ( 'NONE', *, *, #137, .T. ) ;
#11 = ORIENTED_EDGE ( 'NONE', *, *, #107, .F. ) ;
#12 = CARTESIAN_POINT ( 'NONE',  ( -6.250000000000000000, 7.654042494670957606E-16, -1.000000000000000000 ) ) ;
#13 = CARTESIAN_POINT ( 'NONE',  ( 0.000000000000000000, 0.000000000000000000, -1.000000000000000000 ) ) ;
#14 = FILL_AREA_STYLE ('',( #36 ) ) ;
#15 = DIRECTION ( 'NONE',  ( 1.000000000000000000, 0.000000000000000000, 0.000000000000000000 ) ) ;
#16 = CARTESIAN_POINT ( 'NONE',  ( 6.250000000000000000, 0.000000000000000000, -1.000000000000000000 ) ) ;
#17 = CIRCLE ( 'NONE', #97, 6.250000000000000000 ) ;
#18 = EDGE_CURVE ( 'NONE', #79, #65, #43, .T. ) ;
#19 = ORIENTED_EDGE ( 'NONE', *, *, #18, .T. ) ;
#20 = ORIENTED_EDGE ( 'NONE', *, *, #32, .T. ) ;
#21 = EDGE_LOOP ( 'NONE', ( #131, #11 ) ) ;
#22 = CIRCLE ( 'NONE', #30, 6.250000000000000000 ) ;
#23 = DIRECTION ( 'NONE',  ( 1.000000000000000000, 0.000000000000000000, -0.000000000000000000 ) ) ;
#24 = DIRECTION ( 'NONE',  ( 0.000000000000000000, 0.000000000000000000, 1.000000000000000000 ) ) ;
#25 = DIRECTION ( 'NONE',  ( 1.000000000000000000, 0.000000000000000000, 0.000000000000000000 ) ) ;
#26 = FILL_AREA_STYLE_COLOUR ( '', #77 ) ;
#27 = DIRECTION ( 'NONE',  ( 0.000000000000000000, 0.000000000000000000, 1.000000000000000000 ) ) ;
#28 = PRODUCT ( '23301', '23301', '', ( #8 ) ) ;
#29 = PLANE ( 'NONE',  #95 ) ;
#30 = AXIS2_PLACEMENT_3D ( 'NONE', #66, #98, #140 ) ;
#31 = PRESENTATION_LAYER_ASSIGNMENT (  '', '', ( #124 ) ) ;
#32 = EDGE_CURVE ( 'NONE', #65, #87, #117, .T. ) ;
#33 = DIRECTION ( 'NONE',  ( 0.000000000000000000, 0.000000000000000000, 1.000000000000000000 ) ) ;
#34 = EDGE_CURVE ( 'NONE', #42, #87, #102, .T. ) ;
#35 =( NAMED_UNIT ( * ) SI_UNIT ( $, .STERADIAN. ) SOLID_ANGLE_UNIT ( ) );
#36 = FILL_AREA_STYLE_COLOUR ( '', #129 ) ;
#37 = DIRECTION ( 'NONE',  ( 1.000000000000000000, 0.000000000000000000, 0.000000000000000000 ) ) ;
#38 = UNCERTAINTY_MEASURE_WITH_UNIT (LENGTH_MEASURE( 1.000000000000000082E-05 ), #100, 'distance_accuracy_value', 'NONE');
#39 = STYLED_ITEM ( 'NONE', ( #2 ), #48 ) ;
#40 = ADVANCED_FACE ( 'NONE', ( #59 ), #29, .F. ) ;
#41 = CLOSED_SHELL ( 'NONE', ( #86, #47, #40, #91 ) ) ;
#42 = VERTEX_POINT ( 'NONE', #12 ) ;
#43 = LINE ( 'NONE', #16, #108 ) ;
#44 = EDGE_LOOP ( 'NONE', ( #130, #121, #19, #88 ) ) ;
#45 = PRESENTATION_LAYER_ASSIGNMENT (  '', '', ( #39 ) ) ;
#46 = AXIS2_PLACEMENT_3D ( 'NONE', #3, #110, #69 ) ;
#47 = ADVANCED_FACE ( 'NONE', ( #75 ), #60, .T. ) ;
#48 = MANIFOLD_SOLID_BREP ( 'Boss-Extrude1', #41 ) ;
#49 = CARTESIAN_POINT ( 'NONE',  ( 0.000000000000000000, 0.000000000000000000, -1.000000000000000000 ) ) ;
#50 = APPLICATION_PROTOCOL_DEFINITION ( 'draft international standard', 'automotive_design', 1998, #9 ) ;
#51 = SURFACE_STYLE_FILL_AREA ( #14 ) ;
#52 = VECTOR ( 'NONE', #105, 1000.000000000000000 ) ;
#53 =( GEOMETRIC_REPRESENTATION_CONTEXT ( 3 ) GLOBAL_UNCERTAINTY_ASSIGNED_CONTEXT ( ( #94 ) ) GLOBAL_UNIT_ASSIGNED_CONTEXT ( ( #113, #4, #103 ) ) REPRESENTATION_CONTEXT ( 'NONE', 'WORKASPACE' ) );
#54 = ORIENTED_EDGE ( 'NONE', *, *, #34, .T. ) ;
#55 = PRODUCT_DEFINITION ( 'UNKNOWN', '', #92, #115 ) ;
#56 = CARTESIAN_POINT ( 'NONE',  ( 0.000000000000000000, 0.000000000000000000, -1.000000000000000000 ) ) ;
#57 = AXIS2_PLACEMENT_3D ( 'NONE', #136, #33, #37 ) ;
#58 = DIRECTION ( 'NONE',  ( 1.000000000000000000, 0.000000000000000000, -0.000000000000000000 ) ) ;
#59 = FACE_OUTER_BOUND ( 'NONE', #21, .T. ) ;
#60 = CYLINDRICAL_SURFACE ( 'NONE', #46, 6.250000000000000000 ) ;
#61 = DIRECTION ( 'NONE',  ( 0.000000000000000000, 0.000000000000000000, 1.000000000000000000 ) ) ;
#62 = DIRECTION ( 'NONE',  ( 0.000000000000000000, 0.000000000000000000, 1.000000000000000000 ) ) ;
#63 =( NAMED_UNIT ( * ) SI_UNIT ( $, .STERADIAN. ) SOLID_ANGLE_UNIT ( ) );
#64 = ORIENTED_EDGE ( 'NONE', *, *, #7, .T. ) ;
#65 = VERTEX_POINT ( 'NONE', #81 ) ;
#66 = CARTESIAN_POINT ( 'NONE',  ( 0.000000000000000000, 0.000000000000000000, 0.000000000000000000 ) ) ;
#67 = APPLICATION_CONTEXT ( 'automotive_design' ) ;
#68 =( LENGTH_UNIT ( ) NAMED_UNIT ( * ) SI_UNIT ( .MILLI., .METRE. ) );
#69 = DIRECTION ( 'NONE',  ( 1.000000000000000000, 0.000000000000000000, 0.000000000000000000 ) ) ;
#70 = MECHANICAL_DESIGN_GEOMETRIC_PRESENTATION_REPRESENTATION (  '', ( #39 ), #123 ) ;
#71 = DIRECTION ( 'NONE',  ( 0.000000000000000000, 0.000000000000000000, 1.000000000000000000 ) ) ;
#72 = SURFACE_STYLE_FILL_AREA ( #106 ) ;
#73 = CARTESIAN_POINT ( 'NONE',  ( 6.250000000000000000, 0.000000000000000000, -1.000000000000000000 ) ) ;
#74 = SURFACE_STYLE_USAGE ( .BOTH. , #135 ) ;
#75 = FACE_OUTER_BOUND ( 'NONE', #44, .T. ) ;
#76 = PRODUCT_DEFINITION_SHAPE ( 'NONE', 'NONE',  #55 ) ;
#77 = COLOUR_RGB ( '',0.7921568627450980005, 0.8196078431372548767, 0.9333333333333333481 ) ;
#78 = PRODUCT_RELATED_PRODUCT_CATEGORY ( 'part', '', ( #28 ) ) ;
#79 = VERTEX_POINT ( 'NONE', #73 ) ;
#80 = ORIENTED_EDGE ( 'NONE', *, *, #18, .F. ) ;
#81 = CARTESIAN_POINT ( 'NONE',  ( 6.250000000000000000, 0.000000000000000000, 0.000000000000000000 ) ) ;
#82 = AXIS2_PLACEMENT_3D ( 'NONE', #127, #24, #58 ) ;
#83 = MECHANICAL_DESIGN_GEOMETRIC_PRESENTATION_REPRESENTATION (  '', ( #124 ), #53 ) ;
#84 = FACE_OUTER_BOUND ( 'NONE', #120, .T. ) ;
#85 =( NAMED_UNIT ( * ) PLANE_ANGLE_UNIT ( ) SI_UNIT ( $, .RADIAN. ) );
#86 = ADVANCED_FACE ( 'NONE', ( #125 ), #134, .T. ) ;
#87 = VERTEX_POINT ( 'NONE', #112 ) ;
#88 = ORIENTED_EDGE ( 'NONE', *, *, #7, .F. ) ;
#89 = CARTESIAN_POINT ( 'NONE',  ( -6.250000000000000000, 7.654042494670957606E-16, -1.000000000000000000 ) ) ;
#90 = CARTESIAN_POINT ( 'NONE',  ( 0.000000000000000000, 0.000000000000000000, -1.000000000000000000 ) ) ;
#91 = ADVANCED_FACE ( 'NONE', ( #84 ), #122, .T. ) ;
#92 = PRODUCT_DEFINITION_FORMATION_WITH_SPECIFIED_SOURCE ( 'ANY', '', #28, .NOT_KNOWN. ) ;
#93 = ADVANCED_BREP_SHAPE_REPRESENTATION ( '23301', ( #48, #138 ), #99 ) ;
#94 = UNCERTAINTY_MEASURE_WITH_UNIT (LENGTH_MEASURE( 1.000000000000000082E-05 ), #113, 'distance_accuracy_value', 'NONE');
#95 = AXIS2_PLACEMENT_3D ( 'NONE', #13, #61, #23 ) ;
#96 = ORIENTED_EDGE ( 'NONE', *, *, #32, .F. ) ;
#97 = AXIS2_PLACEMENT_3D ( 'NONE', #56, #116, #128 ) ;
#98 = DIRECTION ( 'NONE',  ( 0.000000000000000000, 0.000000000000000000, 1.000000000000000000 ) ) ;
#99 =( GEOMETRIC_REPRESENTATION_CONTEXT ( 3 ) GLOBAL_UNCERTAINTY_ASSIGNED_CONTEXT ( ( #5 ) ) GLOBAL_UNIT_ASSIGNED_CONTEXT ( ( #68, #101, #63 ) ) REPRESENTATION_CONTEXT ( 'NONE', 'WORKASPACE' ) );
#100 =( LENGTH_UNIT ( ) NAMED_UNIT ( * ) SI_UNIT ( .MILLI., .METRE. ) );
#101 =( NAMED_UNIT ( * ) PLANE_ANGLE_UNIT ( ) SI_UNIT ( $, .RADIAN. ) );
#102 = LINE ( 'NONE', #89, #52 ) ;
#103 =( NAMED_UNIT ( * ) SI_UNIT ( $, .STERADIAN. ) SOLID_ANGLE_UNIT ( ) );
#104 = SURFACE_STYLE_USAGE ( .BOTH. , #132 ) ;
#105 = DIRECTION ( 'NONE',  ( 0.000000000000000000, 0.000000000000000000, 1.000000000000000000 ) ) ;
#106 = FILL_AREA_STYLE ('',( #26 ) ) ;
#107 = EDGE_CURVE ( 'NONE', #42, #79, #17, .T. ) ;
#108 = VECTOR ( 'NONE', #71, 1000.000000000000000 ) ;
#109 = AXIS2_PLACEMENT_3D ( 'NONE', #90, #114, #133 ) ;
#110 = DIRECTION ( 'NONE',  ( 0.000000000000000000, 0.000000000000000000, 1.000000000000000000 ) ) ;
#111 = APPLICATION_PROTOCOL_DEFINITION ( 'draft international standard', 'automotive_design', 1998, #67 ) ;
#112 = CARTESIAN_POINT ( 'NONE',  ( -6.250000000000000000, 7.654042494670957606E-16, 0.000000000000000000 ) ) ;
#113 =( LENGTH_UNIT ( ) NAMED_UNIT ( * ) SI_UNIT ( .MILLI., .METRE. ) );
#114 = DIRECTION ( 'NONE',  ( 0.000000000000000000, 0.000000000000000000, 1.000000000000000000 ) ) ;
#115 = PRODUCT_DEFINITION_CONTEXT ( 'detailed design', #9, 'design' ) ;
#116 = DIRECTION ( 'NONE',  ( 0.000000000000000000, 0.000000000000000000, 1.000000000000000000 ) ) ;
#117 = CIRCLE ( 'NONE', #57, 6.250000000000000000 ) ;
#118 = PRESENTATION_STYLE_ASSIGNMENT (( #74 ) ) ;
#119 = CIRCLE ( 'NONE', #109, 6.250000000000000000 ) ;
#120 = EDGE_LOOP ( 'NONE', ( #20, #64 ) ) ;
#121 = ORIENTED_EDGE ( 'NONE', *, *, #107, .T. ) ;
#122 = PLANE ( 'NONE',  #82 ) ;
#123 =( GEOMETRIC_REPRESENTATION_CONTEXT ( 3 ) GLOBAL_UNCERTAINTY_ASSIGNED_CONTEXT ( ( #38 ) ) GLOBAL_UNIT_ASSIGNED_CONTEXT ( ( #100, #85, #35 ) ) REPRESENTATION_CONTEXT ( 'NONE', 'WORKASPACE' ) );
#124 = STYLED_ITEM ( 'NONE', ( #118 ), #93 ) ;
#125 = FACE_OUTER_BOUND ( 'NONE', #1, .T. ) ;
#126 = SHAPE_DEFINITION_REPRESENTATION ( #76, #93 ) ;
#127 = CARTESIAN_POINT ( 'NONE',  ( 0.000000000000000000, 0.000000000000000000, 0.000000000000000000 ) ) ;
#128 = DIRECTION ( 'NONE',  ( 1.000000000000000000, 0.000000000000000000, 0.000000000000000000 ) ) ;
#129 = COLOUR_RGB ( '',0.7921568627450980005, 0.8196078431372548767, 0.9333333333333333481 ) ;
#130 = ORIENTED_EDGE ( 'NONE', *, *, #34, .F. ) ;
#131 = ORIENTED_EDGE ( 'NONE', *, *, #137, .F. ) ;
#132 = SURFACE_SIDE_STYLE ('',( #51 ) ) ;
#133 = DIRECTION ( 'NONE',  ( 1.000000000000000000, 0.000000000000000000, 0.000000000000000000 ) ) ;
#134 = CYLINDRICAL_SURFACE ( 'NONE', #139, 6.250000000000000000 ) ;
#135 = SURFACE_SIDE_STYLE ('',( #72 ) ) ;
#136 = CARTESIAN_POINT ( 'NONE',  ( 0.000000000000000000, 0.000000000000000000, 0.000000000000000000 ) ) ;
#137 = EDGE_CURVE ( 'NONE', #79, #42, #119, .T. ) ;
#138 = AXIS2_PLACEMENT_3D ( 'NONE', #6, #62, #15 ) ;
#139 = AXIS2_PLACEMENT_3D ( 'NONE', #49, #27, #25 ) ;
#140 = DIRECTION ( 'NONE',  ( 1.000000000000000000, 0.000000000000000000, 0.000000000000000000 ) ) ;
ENDSEC;
END-ISO-10303-21;
