ISO-10303-21;
HEADER;
FILE_DESCRIPTION (( 'STEP AP203' ),
    '1' );
FILE_NAME ('Web Model 39291_39291.step',
    '2019-01-23T14:49:22',
    ( '' ),
    ( '' ),
    'SwSTEP 2.0',
    'SolidWorks 2016',
    '' );
FILE_SCHEMA (( 'CONFIG_CONTROL_DESIGN' ));
ENDSEC;

DATA;
#1 = ORIENTED_EDGE ( 'NONE', *, *, #134, .T. ) ;
#2 = APPROVAL ( #65, 'UNSPECIFIED' ) ;
#3 = DIRECTION ( 'NONE',  ( 0.0000000000000000000, 0.0000000000000000000, -1.000000000000000000 ) ) ;
#4 = AXIS2_PLACEMENT_3D ( 'NONE', #228, #81, #63 ) ;
#5 = SHAPE_DEFINITION_REPRESENTATION ( #192, #106 ) ;
#6 = FACE_OUTER_BOUND ( 'NONE', #275, .T. ) ;
#7 = VERTEX_POINT ( 'NONE', #74 ) ;
#8 = DIRECTION ( 'NONE',  ( 0.0000000000000000000, 0.0000000000000000000, 1.000000000000000000 ) ) ;
#9 = DIRECTION ( 'NONE',  ( 1.000000000000000000, 0.0000000000000000000, 0.0000000000000000000 ) ) ;
#10 = DIRECTION ( 'NONE',  ( -1.000000000000000000, 0.0000000000000000000, 0.0000000000000000000 ) ) ;
#11 = DIRECTION ( 'NONE',  ( 0.7071067811865474600, 0.0000000000000000000, -0.7071067811865474600 ) ) ;
#12 = DATE_TIME_ROLE ( 'creation_date' ) ;
#13 = COORDINATED_UNIVERSAL_TIME_OFFSET ( 5, 0, .BEHIND. ) ;
#14 = ORIENTED_EDGE ( 'NONE', *, *, #226, .T. ) ;
#15 = EDGE_CURVE ( 'NONE', #52, #17, #185, .T. ) ;
#16 = CC_DESIGN_APPROVAL ( #238, ( #199 ) ) ;
#17 = VERTEX_POINT ( 'NONE', #103 ) ;
#18 = APPROVAL_PERSON_ORGANIZATION ( #204, #97, #29 ) ;
#19 = ORIENTED_EDGE ( 'NONE', *, *, #187, .F. ) ;
#20 = CC_DESIGN_APPROVAL ( #97, ( #73 ) ) ;
#21 = AXIS2_PLACEMENT_3D ( 'NONE', #145, #164, #8 ) ;
#22 = CARTESIAN_POINT ( 'NONE',  ( -2.500000000000000000, 0.0000000000000000000, 0.0000000000000000000 ) ) ;
#23 = LOCAL_TIME ( 9, 49, 22.00000000000000000, #13 ) ;
#24 = ORIENTED_EDGE ( 'NONE', *, *, #195, .T. ) ;
#25 = DIRECTION ( 'NONE',  ( 0.0000000000000000000, 0.0000000000000000000, -1.000000000000000000 ) ) ;
#26 = PERSON_AND_ORGANIZATION ( #183, #166 ) ;
#27 = CARTESIAN_POINT ( 'NONE',  ( 2.500000000000000000, 0.0000000000000000000, 0.0000000000000000000 ) ) ;
#28 = AXIS2_PLACEMENT_3D ( 'NONE', #22, #82, #107 ) ;
#29 = APPROVAL_ROLE ( '' ) ;
#30 = CALENDAR_DATE ( 2019, 23, 1 ) ;
#31 = AXIS2_PLACEMENT_3D ( 'NONE', #110, #123, #210 ) ;
#32 = COORDINATED_UNIVERSAL_TIME_OFFSET ( 5, 0, .BEHIND. ) ;
#33 = CIRCLE ( 'NONE', #256, 37.50000000000001400 ) ;
#34 = VERTEX_POINT ( 'NONE', #163 ) ;
#35 = AXIS2_PLACEMENT_3D ( 'NONE', #182, #260, #25 ) ;
#36 = VERTEX_POINT ( 'NONE', #59 ) ;
#37 = FACE_OUTER_BOUND ( 'NONE', #217, .T. ) ;
#38 = PRODUCT_RELATED_PRODUCT_CATEGORY ( 'detail', '', ( #240 ) ) ;
#39 = DESIGN_CONTEXT ( 'detailed design', #173, 'design' ) ;
#40 = PERSON_AND_ORGANIZATION ( #183, #166 ) ;
#41 = CARTESIAN_POINT ( 'NONE',  ( -2.250000000000006700, 0.0000000000000000000, 0.0000000000000000000 ) ) ;
#42 = EDGE_LOOP ( 'NONE', ( #147, #14, #79, #201 ) ) ;
#43 = CARTESIAN_POINT ( 'NONE',  ( 2.500000000000000000, 0.0000000000000000000, 0.0000000000000000000 ) ) ;
#44 = DIRECTION ( 'NONE',  ( 1.000000000000000000, 0.0000000000000000000, 0.0000000000000000000 ) ) ;
#45 = CC_DESIGN_APPROVAL ( #2, ( #64 ) ) ;
#46 = DATE_AND_TIME ( #94, #77 ) ;
#47 = CARTESIAN_POINT ( 'NONE',  ( 2.500000000000000000, 0.0000000000000000000, 37.25000000000000700 ) ) ;
#48 = APPLICATION_PROTOCOL_DEFINITION ( 'international standard', 'config_control_design', 1994, #173 ) ;
#49 = CC_DESIGN_PERSON_AND_ORGANIZATION_ASSIGNMENT ( #249, #131, ( #199 ) ) ;
#50 = SECURITY_CLASSIFICATION_LEVEL ( 'unclassified' ) ;
#51 = DATE_AND_TIME ( #101, #227 ) ;
#52 = VERTEX_POINT ( 'NONE', #139 ) ;
#53 =( LENGTH_UNIT ( ) NAMED_UNIT ( * ) SI_UNIT ( .MILLI., .METRE. ) );
#54 = LINE ( 'NONE', #167, #158 ) ;
#55 = VECTOR ( 'NONE', #80, 1000.000000000000000 ) ;
#56 = AXIS2_PLACEMENT_3D ( 'NONE', #41, #261, #262 ) ;
#57 = ORIENTED_EDGE ( 'NONE', *, *, #226, .F. ) ;
#58 = AXIS2_PLACEMENT_3D ( 'NONE', #105, #9, #209 ) ;
#59 = CARTESIAN_POINT ( 'NONE',  ( 2.500000000000000000, 4.577117411813233300E-015, -37.25000000000000700 ) ) ;
#60 = DIRECTION ( 'NONE',  ( -1.000000000000000000, -0.0000000000000000000, -0.0000000000000000000 ) ) ;
#61 = EDGE_LOOP ( 'NONE', ( #177, #19, #198, #207 ) ) ;
#62 = CARTESIAN_POINT ( 'NONE',  ( 2.500000000000000000, 4.561809326823891400E-015, -37.25000000000000700 ) ) ;
#63 = DIRECTION ( 'NONE',  ( 0.0000000000000000000, 0.0000000000000000000, -1.000000000000000000 ) ) ;
#64 = PRODUCT_DEFINITION_FORMATION_WITH_SPECIFIED_SOURCE ( 'ANY', '', #240, .NOT_KNOWN. ) ;
#65 = APPROVAL_STATUS ( 'not_yet_approved' ) ;
#66 = CIRCLE ( 'NONE', #4, 37.50000000000001400 ) ;
#67 = APPLICATION_CONTEXT ( 'configuration controlled 3d designs of mechanical parts and assemblies' ) ;
#68 = APPROVAL_STATUS ( 'not_yet_approved' ) ;
#69 = DIRECTION ( 'NONE',  ( 0.0000000000000000000, 0.0000000000000000000, -1.000000000000000000 ) ) ;
#70 = ADVANCED_FACE ( 'NONE', ( #135 ), #237, .T. ) ;
#71 = AXIS2_PLACEMENT_3D ( 'NONE', #43, #44, #85 ) ;
#72 = DATE_AND_TIME ( #253, #197 ) ;
#73 = SECURITY_CLASSIFICATION ( '', '', #50 ) ;
#74 = CARTESIAN_POINT ( 'NONE',  ( 2.250000000000000000, 4.592425496802575900E-015, -37.50000000000001400 ) ) ;
#75 = PERSON_AND_ORGANIZATION ( #183, #166 ) ;
#76 = ORIENTED_EDGE ( 'NONE', *, *, #176, .T. ) ;
#77 = LOCAL_TIME ( 9, 49, 22.00000000000000000, #206 ) ;
#78 = FACE_OUTER_BOUND ( 'NONE', #61, .T. ) ;
#79 = ORIENTED_EDGE ( 'NONE', *, *, #136, .F. ) ;
#80 = DIRECTION ( 'NONE',  ( -1.000000000000000000, -0.0000000000000000000, -0.0000000000000000000 ) ) ;
#81 = DIRECTION ( 'NONE',  ( 1.000000000000000000, -0.0000000000000000000, -0.0000000000000000000 ) ) ;
#82 = DIRECTION ( 'NONE',  ( -1.000000000000000000, -0.0000000000000000000, -0.0000000000000000000 ) ) ;
#83 = LOCAL_TIME ( 9, 49, 22.00000000000000000, #269 ) ;
#84 = FACE_OUTER_BOUND ( 'NONE', #42, .T. ) ;
#85 = DIRECTION ( 'NONE',  ( 0.0000000000000000000, 0.0000000000000000000, -1.000000000000000000 ) ) ;
#86 = AXIS2_PLACEMENT_3D ( 'NONE', #111, #196, #69 ) ;
#87 = VECTOR ( 'NONE', #188, 1000.000000000000000 ) ;
#88 = ORIENTED_EDGE ( 'NONE', *, *, #151, .T. ) ;
#89 = DIRECTION ( 'NONE',  ( 0.0000000000000000000, 0.0000000000000000000, 1.000000000000000000 ) ) ;
#90 = PERSON_AND_ORGANIZATION_ROLE ( 'creator' ) ;
#91 = APPROVAL_STATUS ( 'not_yet_approved' ) ;
#92 = DIRECTION ( 'NONE',  ( 0.0000000000000000000, 0.0000000000000000000, -1.000000000000000000 ) ) ;
#93 = VECTOR ( 'NONE', #148, 1000.000000000000000 ) ;
#94 = CALENDAR_DATE ( 2019, 23, 1 ) ;
#95 = EDGE_LOOP ( 'NONE', ( #57, #255, #76, #250 ) ) ;
#96 = ADVANCED_FACE ( 'NONE', ( #84 ), #172, .T. ) ;
#97 = APPROVAL ( #68, 'UNSPECIFIED' ) ;
#98 = CARTESIAN_POINT ( 'NONE',  ( 2.500000000000000000, 0.0000000000000000000, 0.0000000000000000000 ) ) ;
#99 = PLANE ( 'NONE',  #267 ) ;
#100 = ADVANCED_FACE ( 'NONE', ( #180 ), #99, .T. ) ;
#101 = CALENDAR_DATE ( 2019, 23, 1 ) ;
#102 = CIRCLE ( 'NONE', #35, 37.25000000000002100 ) ;
#103 = CARTESIAN_POINT ( 'NONE',  ( -2.250000000000006700, 0.0000000000000000000, 37.50000000000001400 ) ) ;
#104 = ORIENTED_EDGE ( 'NONE', *, *, #257, .T. ) ;
#105 = CARTESIAN_POINT ( 'NONE',  ( 2.500000000000000000, 0.0000000000000000000, 0.0000000000000000000 ) ) ;
#106 = ADVANCED_BREP_SHAPE_REPRESENTATION ( 'Web Model 39291_39291', ( #161, #263 ), #218 ) ;
#107 = DIRECTION ( 'NONE',  ( 0.0000000000000000000, 0.0000000000000000000, -1.000000000000000000 ) ) ;
#108 = VECTOR ( 'NONE', #11, 1000.000000000000100 ) ;
#109 = CARTESIAN_POINT ( 'NONE',  ( -2.250000000000006700, 4.592425496802575900E-015, -37.50000000000001400 ) ) ;
#110 = CARTESIAN_POINT ( 'NONE',  ( -2.250000000000006700, 0.0000000000000000000, 0.0000000000000000000 ) ) ;
#111 = CARTESIAN_POINT ( 'NONE',  ( -2.250000000000006700, 0.0000000000000000000, 0.0000000000000000000 ) ) ;
#112 = CIRCLE ( 'NONE', #86, 37.50000000000001400 ) ;
#113 = ORIENTED_EDGE ( 'NONE', *, *, #220, .T. ) ;
#114 = PERSON_AND_ORGANIZATION_ROLE ( 'design_supplier' ) ;
#115 = CIRCLE ( 'NONE', #71, 37.25000000000000700 ) ;
#116 = EDGE_LOOP ( 'NONE', ( #245, #24 ) ) ;
#117 = ORIENTED_EDGE ( 'NONE', *, *, #15, .T. ) ;
#118 = CC_DESIGN_SECURITY_CLASSIFICATION ( #73, ( #64 ) ) ;
#119 = DIRECTION ( 'NONE',  ( 1.000000000000000000, 0.0000000000000000000, 0.0000000000000000000 ) ) ;
#120 = PERSON_AND_ORGANIZATION ( #183, #166 ) ;
#121 = CIRCLE ( 'NONE', #259, 37.50000000000001400 ) ;
#122 = DIRECTION ( 'NONE',  ( 0.0000000000000000000, 0.0000000000000000000, 1.000000000000000000 ) ) ;
#123 = DIRECTION ( 'NONE',  ( 1.000000000000000000, -0.0000000000000000000, -0.0000000000000000000 ) ) ;
#124 = CARTESIAN_POINT ( 'NONE',  ( 2.250000000000000000, 0.0000000000000000000, 0.0000000000000000000 ) ) ;
#125 = ORIENTED_EDGE ( 'NONE', *, *, #189, .T. ) ;
#126 = ORIENTED_EDGE ( 'NONE', *, *, #251, .T. ) ;
#127 = CARTESIAN_POINT ( 'NONE',  ( -2.500000000000000000, 0.0000000000000000000, -37.25000000000002100 ) ) ;
#128 = APPROVAL_PERSON_ORGANIZATION ( #244, #238, #266 ) ;
#129 = LINE ( 'NONE', #62, #87 ) ;
#130 = UNCERTAINTY_MEASURE_WITH_UNIT (LENGTH_MEASURE( 1.000000000000000100E-005 ), #53, 'distance_accuracy_value', 'NONE');
#131 = PERSON_AND_ORGANIZATION_ROLE ( 'creator' ) ;
#132 = CARTESIAN_POINT ( 'NONE',  ( 2.250000000000000000, 0.0000000000000000000, 37.50000000000001400 ) ) ;
#133 = APPROVAL_DATE_TIME ( #51, #238 ) ;
#134 = EDGE_CURVE ( 'NONE', #17, #219, #66, .T. ) ;
#135 = FACE_OUTER_BOUND ( 'NONE', #221, .T. ) ;
#136 = EDGE_CURVE ( 'NONE', #270, #7, #121, .T. ) ;
#137 = APPROVAL_DATE_TIME ( #46, #2 ) ;
#138 = ORIENTED_EDGE ( 'NONE', *, *, #220, .F. ) ;
#139 = CARTESIAN_POINT ( 'NONE',  ( -2.500000000000000000, 4.577117411813234800E-015, 37.25000000000002100 ) ) ;
#140 = CC_DESIGN_PERSON_AND_ORGANIZATION_ASSIGNMENT ( #26, #114, ( #64 ) ) ;
#141 = DIRECTION ( 'NONE',  ( -1.000000000000000000, -0.0000000000000000000, -0.0000000000000000000 ) ) ;
#142 = CIRCLE ( 'NONE', #58, 37.25000000000000700 ) ;
#143 = ORIENTED_EDGE ( 'NONE', *, *, #223, .F. ) ;
#144 = CARTESIAN_POINT ( 'NONE',  ( 2.500000000000000000, 0.0000000000000000000, 37.50000000000001400 ) ) ;
#145 = CARTESIAN_POINT ( 'NONE',  ( 2.500000000000000000, 0.0000000000000000000, 0.0000000000000000000 ) ) ;
#146 = DATE_AND_TIME ( #30, #83 ) ;
#147 = ORIENTED_EDGE ( 'NONE', *, *, #195, .F. ) ;
#148 = DIRECTION ( 'NONE',  ( -0.7071067811865378000, 0.0000000000000000000, 0.7071067811865573400 ) ) ;
#149 = DIRECTION ( 'NONE',  ( -1.000000000000000000, -0.0000000000000000000, -0.0000000000000000000 ) ) ;
#150 = CARTESIAN_POINT ( 'NONE',  ( -2.500000000000000000, 0.0000000000000000000, 0.0000000000000000000 ) ) ;
#151 = EDGE_CURVE ( 'NONE', #270, #17, #229, .T. ) ;
#152 = APPROVAL_DATE_TIME ( #202, #97 ) ;
#153 = DIRECTION ( 'NONE',  ( -1.000000000000000000, 0.0000000000000000000, 0.0000000000000000000 ) ) ;
#154 = CARTESIAN_POINT ( 'NONE',  ( 2.250000000000000000, 0.0000000000000000000, 0.0000000000000000000 ) ) ;
#155 = APPROVAL_PERSON_ORGANIZATION ( #274, #2, #175 ) ;
#156 = ORIENTED_EDGE ( 'NONE', *, *, #187, .T. ) ;
#157 = CARTESIAN_POINT ( 'NONE',  ( 0.0000000000000000000, 0.0000000000000000000, 0.0000000000000000000 ) ) ;
#158 = VECTOR ( 'NONE', #60, 1000.000000000000000 ) ;
#159 = CIRCLE ( 'NONE', #28, 37.25000000000002100 ) ;
#160 = CC_DESIGN_DATE_AND_TIME_ASSIGNMENT ( #72, #12, ( #199 ) ) ;
#161 = MANIFOLD_SOLID_BREP ( 'Chamfer1', #265 ) ;
#162 = LINE ( 'NONE', #184, #108 ) ;
#163 = CARTESIAN_POINT ( 'NONE',  ( 2.500000000000000000, 0.0000000000000000000, 37.25000000000000700 ) ) ;
#164 = DIRECTION ( 'NONE',  ( -1.000000000000000000, 0.0000000000000000000, 0.0000000000000000000 ) ) ;
#165 = DIRECTION ( 'NONE',  ( 0.7071067811865474600, 8.659560562354932900E-017, 0.7071067811865474600 ) ) ;
#166 = ORGANIZATION ( 'UNSPECIFIED', 'UNSPECIFIED', '' ) ;
#167 = CARTESIAN_POINT ( 'NONE',  ( 2.500000000000000000, 4.592425496802575900E-015, -37.50000000000001400 ) ) ;
#168 = FACE_OUTER_BOUND ( 'NONE', #247, .T. ) ;
#169 = DIRECTION ( 'NONE',  ( 0.0000000000000000000, 0.0000000000000000000, 1.000000000000000000 ) ) ;
#170 = ORIENTED_EDGE ( 'NONE', *, *, #136, .T. ) ;
#171 = CONICAL_SURFACE ( 'NONE', #271, 37.25000000000000700, 0.7853981633974621600 ) ;
#172 = CONICAL_SURFACE ( 'NONE', #21, 37.25000000000000700, 0.7853981633974621600 ) ;
#173 = APPLICATION_CONTEXT ( 'configuration controlled 3d designs of mechanical parts and assemblies' ) ;
#174 = CC_DESIGN_PERSON_AND_ORGANIZATION_ASSIGNMENT ( #40, #90, ( #64 ) ) ;
#175 = APPROVAL_ROLE ( '' ) ;
#176 = EDGE_CURVE ( 'NONE', #34, #270, #212, .T. ) ;
#177 = ORIENTED_EDGE ( 'NONE', *, *, #15, .F. ) ;
#178 = ADVANCED_FACE ( 'NONE', ( #6 ), #224, .T. ) ;
#179 = CC_DESIGN_DATE_AND_TIME_ASSIGNMENT ( #146, #194, ( #73 ) ) ;
#180 = FACE_OUTER_BOUND ( 'NONE', #116, .T. ) ;
#181 = VECTOR ( 'NONE', #165, 1000.000000000000100 ) ;
#182 = CARTESIAN_POINT ( 'NONE',  ( -2.500000000000000000, 0.0000000000000000000, 0.0000000000000000000 ) ) ;
#183 = PERSON ( 'UNSPECIFIED', 'UNSPECIFIED', 'UNSPECIFIED', ('UNSPECIFIED'), ('UNSPECIFIED'), ('UNSPECIFIED') ) ;
#184 = CARTESIAN_POINT ( 'NONE',  ( -2.250000000000006700, 0.0000000000000000000, -37.50000000000001400 ) ) ;
#185 = LINE ( 'NONE', #225, #181 ) ;
#186 = ADVANCED_FACE ( 'NONE', ( #168 ), #205, .T. ) ;
#187 = EDGE_CURVE ( 'NONE', #254, #52, #159, .T. ) ;
#188 = DIRECTION ( 'NONE',  ( -0.7071067811865378000, 8.659560562355054900E-017, -0.7071067811865573400 ) ) ;
#189 = EDGE_CURVE ( 'NONE', #52, #254, #102, .T. ) ;
#190 = ORIENTED_EDGE ( 'NONE', *, *, #257, .F. ) ;
#191 = CC_DESIGN_PERSON_AND_ORGANIZATION_ASSIGNMENT ( #75, #239, ( #73 ) ) ;
#192 = PRODUCT_DEFINITION_SHAPE ( 'NONE', 'NONE',  #199 ) ;
#193 = DIRECTION ( 'NONE',  ( -1.000000000000000000, 0.0000000000000000000, 0.0000000000000000000 ) ) ;
#194 = DATE_TIME_ROLE ( 'classification_date' ) ;
#195 = EDGE_CURVE ( 'NONE', #36, #34, #142, .T. ) ;
#196 = DIRECTION ( 'NONE',  ( 1.000000000000000000, -0.0000000000000000000, -0.0000000000000000000 ) ) ;
#197 = LOCAL_TIME ( 9, 49, 22.00000000000000000, #32 ) ;
#198 = ORIENTED_EDGE ( 'NONE', *, *, #223, .T. ) ;
#199 = PRODUCT_DEFINITION ( 'UNKNOWN', '', #64, #39 ) ;
#200 = CONICAL_SURFACE ( 'NONE', #56, 37.50000000000001400, 0.7853981633974482800 ) ;
#201 = ORIENTED_EDGE ( 'NONE', *, *, #176, .F. ) ;
#202 = DATE_AND_TIME ( #211, #23 ) ;
#203 = EDGE_CURVE ( 'NONE', #34, #36, #115, .T. ) ;
#204 = PERSON_AND_ORGANIZATION ( #183, #166 ) ;
#205 = CONICAL_SURFACE ( 'NONE', #31, 37.50000000000001400, 0.7853981633974482800 ) ;
#206 = COORDINATED_UNIVERSAL_TIME_OFFSET ( 5, 0, .BEHIND. ) ;
#207 = ORIENTED_EDGE ( 'NONE', *, *, #134, .F. ) ;
#208 = DIRECTION ( 'NONE',  ( 0.0000000000000000000, 0.0000000000000000000, -1.000000000000000000 ) ) ;
#209 = DIRECTION ( 'NONE',  ( 0.0000000000000000000, 0.0000000000000000000, -1.000000000000000000 ) ) ;
#210 = DIRECTION ( 'NONE',  ( 0.0000000000000000000, 0.0000000000000000000, -1.000000000000000000 ) ) ;
#211 = CALENDAR_DATE ( 2019, 23, 1 ) ;
#212 = LINE ( 'NONE', #47, #93 ) ;
#213 = DIRECTION ( 'NONE',  ( 1.000000000000000000, 0.0000000000000000000, 0.0000000000000000000 ) ) ;
#214 =( NAMED_UNIT ( * ) SI_UNIT ( $, .STERADIAN. ) SOLID_ANGLE_UNIT ( ) );
#215 = APPLICATION_PROTOCOL_DEFINITION ( 'international standard', 'config_control_design', 1994, #67 ) ;
#216 = COORDINATED_UNIVERSAL_TIME_OFFSET ( 5, 0, .BEHIND. ) ;
#217 = EDGE_LOOP ( 'NONE', ( #156, #125 ) ) ;
#218 =( GEOMETRIC_REPRESENTATION_CONTEXT ( 3 ) GLOBAL_UNCERTAINTY_ASSIGNED_CONTEXT ( ( #130 ) ) GLOBAL_UNIT_ASSIGNED_CONTEXT ( ( #53, #243, #214 ) ) REPRESENTATION_CONTEXT ( 'NONE', 'WORKASPACE' ) );
#219 = VERTEX_POINT ( 'NONE', #109 ) ;
#220 = EDGE_CURVE ( 'NONE', #7, #219, #54, .T. ) ;
#221 = EDGE_LOOP ( 'NONE', ( #170, #113, #104, #264 ) ) ;
#222 = ORIENTED_EDGE ( 'NONE', *, *, #189, .F. ) ;
#223 = EDGE_CURVE ( 'NONE', #254, #219, #162, .T. ) ;
#224 = CYLINDRICAL_SURFACE ( 'NONE', #272, 37.50000000000001400 ) ;
#225 = CARTESIAN_POINT ( 'NONE',  ( -2.250000000000006700, 4.592425496802575900E-015, 37.50000000000001400 ) ) ;
#226 = EDGE_CURVE ( 'NONE', #36, #7, #129, .T. ) ;
#227 = LOCAL_TIME ( 9, 49, 22.00000000000000000, #216 ) ;
#228 = CARTESIAN_POINT ( 'NONE',  ( -2.250000000000006700, 0.0000000000000000000, 0.0000000000000000000 ) ) ;
#229 = LINE ( 'NONE', #144, #55 ) ;
#230 = CC_DESIGN_PERSON_AND_ORGANIZATION_ASSIGNMENT ( #120, #268, ( #240 ) ) ;
#231 = ADVANCED_FACE ( 'NONE', ( #37 ), #232, .F. ) ;
#232 = PLANE ( 'NONE',  #252 ) ;
#233 = DIRECTION ( 'NONE',  ( 0.0000000000000000000, 0.0000000000000000000, -1.000000000000000000 ) ) ;
#234 = CARTESIAN_POINT ( 'NONE',  ( 2.500000000000000000, 0.0000000000000000000, 0.0000000000000000000 ) ) ;
#235 = MECHANICAL_CONTEXT ( 'NONE', #67, 'mechanical' ) ;
#236 = FACE_OUTER_BOUND ( 'NONE', #95, .T. ) ;
#237 = CYLINDRICAL_SURFACE ( 'NONE', #242, 37.50000000000001400 ) ;
#238 = APPROVAL ( #91, 'UNSPECIFIED' ) ;
#239 = PERSON_AND_ORGANIZATION_ROLE ( 'classification_officer' ) ;
#240 = PRODUCT ( 'Web Model 39291_39291', 'Web Model 39291_39291', '', ( #235 ) ) ;
#241 = DIRECTION ( 'NONE',  ( 0.0000000000000000000, 0.0000000000000000000, 1.000000000000000000 ) ) ;
#242 = AXIS2_PLACEMENT_3D ( 'NONE', #258, #141, #122 ) ;
#243 =( NAMED_UNIT ( * ) PLANE_ANGLE_UNIT ( ) SI_UNIT ( $, .RADIAN. ) );
#244 = PERSON_AND_ORGANIZATION ( #183, #166 ) ;
#245 = ORIENTED_EDGE ( 'NONE', *, *, #203, .T. ) ;
#246 = DIRECTION ( 'NONE',  ( 1.000000000000000000, 0.0000000000000000000, 0.0000000000000000000 ) ) ;
#247 = EDGE_LOOP ( 'NONE', ( #222, #117, #190, #143 ) ) ;
#248 = ADVANCED_FACE ( 'NONE', ( #78 ), #200, .T. ) ;
#249 = PERSON_AND_ORGANIZATION ( #183, #166 ) ;
#250 = ORIENTED_EDGE ( 'NONE', *, *, #251, .F. ) ;
#251 = EDGE_CURVE ( 'NONE', #7, #270, #33, .T. ) ;
#252 = AXIS2_PLACEMENT_3D ( 'NONE', #150, #213, #233 ) ;
#253 = CALENDAR_DATE ( 2019, 23, 1 ) ;
#254 = VERTEX_POINT ( 'NONE', #127 ) ;
#255 = ORIENTED_EDGE ( 'NONE', *, *, #203, .F. ) ;
#256 = AXIS2_PLACEMENT_3D ( 'NONE', #154, #153, #92 ) ;
#257 = EDGE_CURVE ( 'NONE', #219, #17, #112, .T. ) ;
#258 = CARTESIAN_POINT ( 'NONE',  ( 2.500000000000000000, 0.0000000000000000000, 0.0000000000000000000 ) ) ;
#259 = AXIS2_PLACEMENT_3D ( 'NONE', #124, #10, #208 ) ;
#260 = DIRECTION ( 'NONE',  ( -1.000000000000000000, -0.0000000000000000000, -0.0000000000000000000 ) ) ;
#261 = DIRECTION ( 'NONE',  ( 1.000000000000000000, -0.0000000000000000000, -0.0000000000000000000 ) ) ;
#262 = DIRECTION ( 'NONE',  ( 0.0000000000000000000, 0.0000000000000000000, -1.000000000000000000 ) ) ;
#263 = AXIS2_PLACEMENT_3D ( 'NONE', #157, #241, #246 ) ;
#264 = ORIENTED_EDGE ( 'NONE', *, *, #151, .F. ) ;
#265 = CLOSED_SHELL ( 'NONE', ( #96, #186, #70, #178, #100, #231, #248, #273 ) ) ;
#266 = APPROVAL_ROLE ( '' ) ;
#267 = AXIS2_PLACEMENT_3D ( 'NONE', #98, #119, #3 ) ;
#268 = PERSON_AND_ORGANIZATION_ROLE ( 'design_owner' ) ;
#269 = COORDINATED_UNIVERSAL_TIME_OFFSET ( 5, 0, .BEHIND. ) ;
#270 = VERTEX_POINT ( 'NONE', #132 ) ;
#271 = AXIS2_PLACEMENT_3D ( 'NONE', #27, #193, #89 ) ;
#272 = AXIS2_PLACEMENT_3D ( 'NONE', #234, #149, #169 ) ;
#273 = ADVANCED_FACE ( 'NONE', ( #236 ), #171, .T. ) ;
#274 = PERSON_AND_ORGANIZATION ( #183, #166 ) ;
#275 = EDGE_LOOP ( 'NONE', ( #138, #126, #88, #1 ) ) ;
ENDSEC;
END-ISO-10303-21;
