ISO-10303-21;
HEADER;
FILE_DESCRIPTION (( 'STEP AP203' ),
    '1' );
FILE_NAME ('TTN188112-E0W.STEP',
    '2019-10-24T18:02:01',
    ( '' ),
    ( '' ),
    'SwSTEP 2.0',
    'SolidWorks 2018',
    '' );
FILE_SCHEMA (( 'CONFIG_CONTROL_DESIGN' ));
ENDSEC;

DATA;
#1 = LOCAL_TIME ( 14, 2, 1.000000000000000000, #139 ) ;
#2 = CARTESIAN_POINT ( 'NONE',  ( 0.0000000000000000000, 0.0000000000000000000, 9.369999999999999218 ) ) ;
#3 = EDGE_CURVE ( 'NONE', #25, #144, #270, .T. ) ;
#4 = LOCAL_TIME ( 14, 2, 1.000000000000000000, #166 ) ;
#5 = DIRECTION ( 'NONE',  ( -0.0000000000000000000, -0.0000000000000000000, 1.000000000000000000 ) ) ;
#6 = ORIENTED_EDGE ( 'NONE', *, *, #257, .F. ) ;
#7 = DIRECTION ( 'NONE',  ( -0.0000000000000000000, -0.0000000000000000000, 1.000000000000000000 ) ) ;
#8 = DIRECTION ( 'NONE',  ( 1.000000000000000000, 0.0000000000000000000, 0.0000000000000000000 ) ) ;
#9 = DIRECTION ( 'NONE',  ( -1.000000000000000000, 0.0000000000000000000, 0.0000000000000000000 ) ) ;
#10 = DIRECTION ( 'NONE',  ( -0.0000000000000000000, -0.0000000000000000000, 1.000000000000000000 ) ) ;
#11 = DATE_TIME_ROLE ( 'classification_date' ) ;
#12 = CLOSED_SHELL ( 'NONE', ( #136, #56, #269, #250, #70, #226, #161 ) ) ;
#13 = CYLINDRICAL_SURFACE ( 'NONE', #223, 6.349999999999998757 ) ;
#14 = PERSON_AND_ORGANIZATION_ROLE ( 'classification_officer' ) ;
#15 = APPROVAL_DATE_TIME ( #67, #104 ) ;
#16 = ORIENTED_EDGE ( 'NONE', *, *, #3, .T. ) ;
#17 = AXIS2_PLACEMENT_3D ( 'NONE', #170, #187, #169 ) ;
#18 = EDGE_LOOP ( 'NONE', ( #69, #46, #6, #217 ) ) ;
#19 = AXIS2_PLACEMENT_3D ( 'NONE', #172, #244, #206 ) ;
#20 = DIRECTION ( 'NONE',  ( -1.000000000000000000, 0.0000000000000000000, 0.0000000000000000000 ) ) ;
#21 = CIRCLE ( 'NONE', #133, 6.099999999999995204 ) ;
#22 = ORIENTED_EDGE ( 'NONE', *, *, #71, .F. ) ;
#23 = DIRECTION ( 'NONE',  ( 1.000000000000000000, 0.0000000000000000000, 0.0000000000000000000 ) ) ;
#24 = PLANE ( 'NONE',  #19 ) ;
#25 = VERTEX_POINT ( 'NONE', #76 ) ;
#26 = EDGE_CURVE ( 'NONE', #121, #135, #210, .T. ) ;
#27 = CARTESIAN_POINT ( 'NONE',  ( -6.099999999999995204, 0.0000000000000000000, 0.0000000000000000000 ) ) ;
#28 = CARTESIAN_POINT ( 'NONE',  ( 6.349999999999997868, 0.0000000000000000000, -1.996525414567110523 ) ) ;
#29 = VECTOR ( 'NONE', #256, 1000.000000000000000 ) ;
#30 = EDGE_LOOP ( 'NONE', ( #243, #16, #254, #129, #115 ) ) ;
#31 = DIRECTION ( 'NONE',  ( 0.0000000000000000000, 1.000000000000000000, 0.0000000000000000000 ) ) ;
#32 = APPROVAL_STATUS ( 'not_yet_approved' ) ;
#33 = EDGE_CURVE ( 'NONE', #245, #189, #92, .T. ) ;
#34 = APPROVAL ( #32, 'UNSPECIFIED' ) ;
#35 = ORIENTED_EDGE ( 'NONE', *, *, #90, .F. ) ;
#36 = CIRCLE ( 'NONE', #202, 6.349999999999997868 ) ;
#37 = AXIS2_PLACEMENT_3D ( 'NONE', #233, #149, #20 ) ;
#38 = ORIENTED_EDGE ( 'NONE', *, *, #186, .T. ) ;
#39 = SPHERICAL_SURFACE ( 'NONE', #44, 13.01999999999999957 ) ;
#40 = CC_DESIGN_PERSON_AND_ORGANIZATION_ASSIGNMENT ( #234, #14, ( #164 ) ) ;
#41 = AXIS2_PLACEMENT_3D ( 'NONE', #171, #7, #191 ) ;
#42 = SPHERICAL_SURFACE ( 'NONE', #253, 13.01999999999999957 ) ;
#43 = CALENDAR_DATE ( 2019, 24, 10 ) ;
#44 = AXIS2_PLACEMENT_3D ( 'NONE', #2, #78, #236 ) ;
#45 = PERSON_AND_ORGANIZATION ( #61, #242 ) ;
#46 = ORIENTED_EDGE ( 'NONE', *, *, #90, .T. ) ;
#47 = PRODUCT_RELATED_PRODUCT_CATEGORY ( 'detail', '', ( #102 ) ) ;
#48 = FACE_OUTER_BOUND ( 'NONE', #126, .T. ) ;
#49 = UNCERTAINTY_MEASURE_WITH_UNIT (LENGTH_MEASURE( 1.000000000000000082E-05 ), #199, 'distance_accuracy_value', 'NONE');
#50 = AXIS2_PLACEMENT_3D ( 'NONE', #138, #158, #266 ) ;
#51 = DIRECTION ( 'NONE',  ( -0.0000000000000000000, -0.0000000000000000000, 1.000000000000000000 ) ) ;
#52 = CIRCLE ( 'NONE', #181, 6.349999999999997868 ) ;
#53 = EDGE_LOOP ( 'NONE', ( #183, #58, #263, #68 ) ) ;
#54 = AXIS2_PLACEMENT_3D ( 'NONE', #195, #196, #219 ) ;
#55 = CONICAL_SURFACE ( 'NONE', #118, 6.099999999999995204, 0.7853981633974466137 ) ;
#56 = ADVANCED_FACE ( 'NONE', ( #230 ), #39, .T. ) ;
#57 = PERSON_AND_ORGANIZATION ( #61, #242 ) ;
#58 = ORIENTED_EDGE ( 'NONE', *, *, #26, .T. ) ;
#59 = PRODUCT_DEFINITION_SHAPE ( 'NONE', 'NONE',  #240 ) ;
#60 = DATE_AND_TIME ( #43, #111 ) ;
#61 = PERSON ( 'UNSPECIFIED', 'UNSPECIFIED', 'UNSPECIFIED', ('UNSPECIFIED'), ('UNSPECIFIED'), ('UNSPECIFIED') ) ;
#62 = ORIENTED_EDGE ( 'NONE', *, *, #231, .F. ) ;
#63 = CARTESIAN_POINT ( 'NONE',  ( 0.0000000000000000000, 0.0000000000000000000, -1.996525414567110523 ) ) ;
#64 = DIRECTION ( 'NONE',  ( -1.000000000000000000, 0.0000000000000000000, 0.0000000000000000000 ) ) ;
#65 = ORIENTED_EDGE ( 'NONE', *, *, #26, .F. ) ;
#66 = EDGE_CURVE ( 'NONE', #140, #135, #147, .T. ) ;
#67 = DATE_AND_TIME ( #182, #146 ) ;
#68 = ORIENTED_EDGE ( 'NONE', *, *, #207, .F. ) ;
#69 = ORIENTED_EDGE ( 'NONE', *, *, #33, .F. ) ;
#70 = ADVANCED_FACE ( 'NONE', ( #150 ), #13, .T. ) ;
#71 = EDGE_CURVE ( 'NONE', #140, #198, #192, .T. ) ;
#72 = APPLICATION_PROTOCOL_DEFINITION ( 'international standard', 'config_control_design', 1994, #120 ) ;
#73 = FACE_OUTER_BOUND ( 'NONE', #18, .T. ) ;
#74 = CC_DESIGN_PERSON_AND_ORGANIZATION_ASSIGNMENT ( #45, #267, ( #240 ) ) ;
#75 = ORIENTED_EDGE ( 'NONE', *, *, #124, .T. ) ;
#76 = CARTESIAN_POINT ( 'NONE',  ( -6.349999999999997868, 7.776507174585691177E-16, -1.996525414567110523 ) ) ;
#77 = COORDINATED_UNIVERSAL_TIME_OFFSET ( 5, 0, .BEHIND. ) ;
#78 = DIRECTION ( 'NONE',  ( -1.000000000000000000, 0.0000000000000000000, 0.0000000000000000000 ) ) ;
#79 = DIRECTION ( 'NONE',  ( 1.000000000000000000, 0.0000000000000000000, 0.0000000000000000000 ) ) ;
#80 = CC_DESIGN_DATE_AND_TIME_ASSIGNMENT ( #105, #11, ( #164 ) ) ;
#81 = DIRECTION ( 'NONE',  ( -0.0000000000000000000, -0.0000000000000000000, 1.000000000000000000 ) ) ;
#82 = EDGE_LOOP ( 'NONE', ( #38, #238 ) ) ;
#83 = CARTESIAN_POINT ( 'NONE',  ( 0.0000000000000000000, 6.349999999999998757, -1.996525414567110523 ) ) ;
#84 = CARTESIAN_POINT ( 'NONE',  ( 0.0000000000000000000, 0.0000000000000000000, -1.996525414567110523 ) ) ;
#85 = CARTESIAN_POINT ( 'NONE',  ( 0.0000000000000000000, 0.0000000000000000000, 9.369999999999999218 ) ) ;
#86 = PERSON_AND_ORGANIZATION ( #61, #242 ) ;
#87 = LINE ( 'NONE', #259, #255 ) ;
#88 = CARTESIAN_POINT ( 'NONE',  ( 0.0000000000000000000, 0.0000000000000000000, 0.0000000000000000000 ) ) ;
#89 = DESIGN_CONTEXT ( 'detailed design', #208, 'design' ) ;
#90 = EDGE_CURVE ( 'NONE', #245, #198, #87, .T. ) ;
#91 = CC_DESIGN_PERSON_AND_ORGANIZATION_ASSIGNMENT ( #86, #97, ( #102 ) ) ;
#92 = CIRCLE ( 'NONE', #37, 6.099999999999995204 ) ;
#93 = CC_DESIGN_APPROVAL ( #167, ( #240 ) ) ;
#94 = CALENDAR_DATE ( 2019, 24, 10 ) ;
#95 = APPROVAL_STATUS ( 'not_yet_approved' ) ;
#96 = CALENDAR_DATE ( 2019, 24, 10 ) ;
#97 = PERSON_AND_ORGANIZATION_ROLE ( 'design_owner' ) ;
#98 = MECHANICAL_CONTEXT ( 'NONE', #120, 'mechanical' ) ;
#99 = FACE_OUTER_BOUND ( 'NONE', #53, .T. ) ;
#100 = ORIENTED_EDGE ( 'NONE', *, *, #231, .T. ) ;
#101 = FACE_OUTER_BOUND ( 'NONE', #165, .T. ) ;
#102 = PRODUCT ( 'TTN188112-E0W', 'TTN188112-E0W', '', ( #98 ) ) ;
#103 = EDGE_CURVE ( 'NONE', #198, #185, #204, .T. ) ;
#104 = APPROVAL ( #95, 'UNSPECIFIED' ) ;
#105 = DATE_AND_TIME ( #265, #4 ) ;
#106 = ORIENTED_EDGE ( 'NONE', *, *, #103, .F. ) ;
#107 = CARTESIAN_POINT ( 'NONE',  ( 0.0000000000000000000, 0.0000000000000000000, 0.0000000000000000000 ) ) ;
#108 = CARTESIAN_POINT ( 'NONE',  ( 6.349999999999998757, 0.0000000000000000000, 0.0000000000000000000 ) ) ;
#109 = AXIS2_PLACEMENT_3D ( 'NONE', #178, #251, #229 ) ;
#110 = DIRECTION ( 'NONE',  ( 0.7071067811865463515, 8.659560562354919300E-17, -0.7071067811865487940 ) ) ;
#111 = LOCAL_TIME ( 14, 2, 1.000000000000000000, #156 ) ;
#112 = DIRECTION ( 'NONE',  ( 0.0000000000000000000, 0.0000000000000000000, -1.000000000000000000 ) ) ;
#113 = DIRECTION ( 'NONE',  ( -0.0000000000000000000, -0.0000000000000000000, 1.000000000000000000 ) ) ;
#114 = PERSON_AND_ORGANIZATION ( #61, #242 ) ;
#115 = ORIENTED_EDGE ( 'NONE', *, *, #103, .T. ) ;
#116 = CC_DESIGN_PERSON_AND_ORGANIZATION_ASSIGNMENT ( #221, #142, ( #153 ) ) ;
#117 = APPROVAL_ROLE ( '' ) ;
#118 = AXIS2_PLACEMENT_3D ( 'NONE', #88, #237, #154 ) ;
#119 = APPROVAL_ROLE ( '' ) ;
#120 = APPLICATION_CONTEXT ( 'configuration controlled 3d designs of mechanical parts and assemblies' ) ;
#121 = VERTEX_POINT ( 'NONE', #258 ) ;
#122 = CC_DESIGN_APPROVAL ( #104, ( #153 ) ) ;
#123 = ORIENTED_EDGE ( 'NONE', *, *, #257, .T. ) ;
#124 = EDGE_CURVE ( 'NONE', #121, #144, #232, .T. ) ;
#125 = LINE ( 'NONE', #130, #212 ) ;
#126 = EDGE_LOOP ( 'NONE', ( #134, #100, #249, #123, #22 ) ) ;
#127 = CC_DESIGN_PERSON_AND_ORGANIZATION_ASSIGNMENT ( #57, #141, ( #153 ) ) ;
#128 = CARTESIAN_POINT ( 'NONE',  ( -6.099999999999995204, 0.0000000000000000000, 0.0000000000000000000 ) ) ;
#129 = ORIENTED_EDGE ( 'NONE', *, *, #71, .T. ) ;
#130 = CARTESIAN_POINT ( 'NONE',  ( -6.349999999999998757, 7.776507174585691177E-16, 0.0000000000000000000 ) ) ;
#131 = CARTESIAN_POINT ( 'NONE',  ( 0.0000000000000000000, 0.0000000000000000000, 0.0000000000000000000 ) ) ;
#132 = APPROVAL_PERSON_ORGANIZATION ( #247, #167, #119 ) ;
#133 = AXIS2_PLACEMENT_3D ( 'NONE', #131, #10, #9 ) ;
#134 = ORIENTED_EDGE ( 'NONE', *, *, #66, .T. ) ;
#135 = VERTEX_POINT ( 'NONE', #83 ) ;
#136 = ADVANCED_FACE ( 'NONE', ( #73 ), #176, .T. ) ;
#137 = EDGE_CURVE ( 'NONE', #189, #185, #261, .T. ) ;
#138 = CARTESIAN_POINT ( 'NONE',  ( 0.0000000000000000000, 0.0000000000000000000, -0.2500000000000045519 ) ) ;
#139 = COORDINATED_UNIVERSAL_TIME_OFFSET ( 5, 0, .BEHIND. ) ;
#140 = VERTEX_POINT ( 'NONE', #28 ) ;
#141 = PERSON_AND_ORGANIZATION_ROLE ( 'creator' ) ;
#142 = PERSON_AND_ORGANIZATION_ROLE ( 'design_supplier' ) ;
#143 = EDGE_CURVE ( 'NONE', #25, #185, #125, .T. ) ;
#144 = VERTEX_POINT ( 'NONE', #222 ) ;
#145 = DIRECTION ( 'NONE',  ( -0.0000000000000000000, -0.0000000000000000000, 1.000000000000000000 ) ) ;
#146 = LOCAL_TIME ( 14, 2, 1.000000000000000000, #227 ) ;
#147 = CIRCLE ( 'NONE', #41, 6.349999999999997868 ) ;
#148 = APPROVAL_DATE_TIME ( #60, #34 ) ;
#149 = DIRECTION ( 'NONE',  ( -0.0000000000000000000, -0.0000000000000000000, 1.000000000000000000 ) ) ;
#150 = FACE_OUTER_BOUND ( 'NONE', #30, .T. ) ;
#151 = DIRECTION ( 'NONE',  ( -1.000000000000000000, 0.0000000000000000000, 0.0000000000000000000 ) ) ;
#152 = DIRECTION ( 'NONE',  ( -0.0000000000000000000, -0.0000000000000000000, 1.000000000000000000 ) ) ;
#153 = PRODUCT_DEFINITION_FORMATION_WITH_SPECIFIED_SOURCE ( 'ANY', '', #102, .NOT_KNOWN. ) ;
#154 = DIRECTION ( 'NONE',  ( -1.000000000000000000, 0.0000000000000000000, 0.0000000000000000000 ) ) ;
#155 = AXIS2_PLACEMENT_3D ( 'NONE', #214, #145, #23 ) ;
#156 = COORDINATED_UNIVERSAL_TIME_OFFSET ( 5, 0, .BEHIND. ) ;
#157 = CARTESIAN_POINT ( 'NONE',  ( 0.0000000000000000000, 0.0000000000000000000, -0.2500000000000045519 ) ) ;
#158 = DIRECTION ( 'NONE',  ( 0.0000000000000000000, 0.0000000000000000000, -1.000000000000000000 ) ) ;
#159 = APPROVAL_DATE_TIME ( #162, #167 ) ;
#160 = EDGE_LOOP ( 'NONE', ( #65, #75, #225, #62 ) ) ;
#161 = ADVANCED_FACE ( 'NONE', ( #101 ), #55, .T. ) ;
#162 = DATE_AND_TIME ( #94, #1 ) ;
#163 = APPLICATION_PROTOCOL_DEFINITION ( 'international standard', 'config_control_design', 1994, #208 ) ;
#164 = SECURITY_CLASSIFICATION ( '', '', #179 ) ;
#165 = EDGE_LOOP ( 'NONE', ( #35, #252, #177, #106 ) ) ;
#166 = COORDINATED_UNIVERSAL_TIME_OFFSET ( 5, 0, .BEHIND. ) ;
#167 = APPROVAL ( #248, 'UNSPECIFIED' ) ;
#168 = AXIS2_PLACEMENT_3D ( 'NONE', #107, #112, #151 ) ;
#169 = DIRECTION ( 'NONE',  ( 0.0000000000000000000, 0.0000000000000000000, -1.000000000000000000 ) ) ;
#170 = CARTESIAN_POINT ( 'NONE',  ( 0.0000000000000000000, 0.0000000000000000000, 9.369999999999999218 ) ) ;
#171 = CARTESIAN_POINT ( 'NONE',  ( 0.0000000000000000000, 0.0000000000000000000, -1.996525414567110523 ) ) ;
#172 = CARTESIAN_POINT ( 'NONE',  ( 0.0000000000000000000, 0.0000000000000000000, 0.0000000000000000000 ) ) ;
#173 = AXIS2_PLACEMENT_3D ( 'NONE', #157, #220, #64 ) ;
#174 = SHAPE_DEFINITION_REPRESENTATION ( #59, #271 ) ;
#175 = CARTESIAN_POINT ( 'NONE',  ( 6.349999999999998757, 0.0000000000000000000, -0.2500000000000045519 ) ) ;
#176 = CONICAL_SURFACE ( 'NONE', #168, 6.099999999999995204, 0.7853981633974466137 ) ;
#177 = ORIENTED_EDGE ( 'NONE', *, *, #137, .T. ) ;
#178 = CARTESIAN_POINT ( 'NONE',  ( 0.0000000000000000000, 0.0000000000000000000, 0.0000000000000000000 ) ) ;
#179 = SECURITY_CLASSIFICATION_LEVEL ( 'unclassified' ) ;
#180 = VECTOR ( 'NONE', #241, 1000.000000000000000 ) ;
#181 = AXIS2_PLACEMENT_3D ( 'NONE', #84, #51, #239 ) ;
#182 = CALENDAR_DATE ( 2019, 24, 10 ) ;
#183 = ORIENTED_EDGE ( 'NONE', *, *, #124, .F. ) ;
#184 = MANIFOLD_SOLID_BREP ( 'TTN188116-1-solid1', #12 ) ;
#185 = VERTEX_POINT ( 'NONE', #218 ) ;
#186 = EDGE_CURVE ( 'NONE', #189, #245, #21, .T. ) ;
#187 = DIRECTION ( 'NONE',  ( 1.000000000000000000, 0.0000000000000000000, 0.0000000000000000000 ) ) ;
#188 = FACE_OUTER_BOUND ( 'NONE', #82, .T. ) ;
#189 = VERTEX_POINT ( 'NONE', #27 ) ;
#190 = AXIS2_PLACEMENT_3D ( 'NONE', #200, #113, #246 ) ;
#191 = DIRECTION ( 'NONE',  ( 1.000000000000000000, 0.0000000000000000000, 0.0000000000000000000 ) ) ;
#192 = LINE ( 'NONE', #108, #180 ) ;
#193 = DIRECTION ( 'NONE',  ( -1.000000000000000000, 0.0000000000000000000, 0.0000000000000000000 ) ) ;
#194 = CARTESIAN_POINT ( 'NONE',  ( 6.099999999999995204, 7.623426324692270270E-16, 0.0000000000000000000 ) ) ;
#195 = CARTESIAN_POINT ( 'NONE',  ( 0.0000000000000000000, 0.0000000000000000000, 9.369999999999999218 ) ) ;
#196 = DIRECTION ( 'NONE',  ( -1.000000000000000000, 1.224646799147353207E-16, 0.0000000000000000000 ) ) ;
#197 = APPROVAL_PERSON_ORGANIZATION ( #114, #104, #117 ) ;
#198 = VERTEX_POINT ( 'NONE', #175 ) ;
#199 =( LENGTH_UNIT ( ) NAMED_UNIT ( * ) SI_UNIT ( .MILLI., .METRE. ) );
#200 = CARTESIAN_POINT ( 'NONE',  ( 0.0000000000000000000, 0.0000000000000000000, 0.0000000000000000000 ) ) ;
#201 =( NAMED_UNIT ( * ) SI_UNIT ( $, .STERADIAN. ) SOLID_ANGLE_UNIT ( ) );
#202 = AXIS2_PLACEMENT_3D ( 'NONE', #63, #152, #8 ) ;
#203 = DATE_AND_TIME ( #96, #260 ) ;
#204 = CIRCLE ( 'NONE', #173, 6.349999999999998757 ) ;
#205 = CIRCLE ( 'NONE', #50, 6.349999999999998757 ) ;
#206 = DIRECTION ( 'NONE',  ( -1.000000000000000000, 0.0000000000000000000, -0.0000000000000000000 ) ) ;
#207 = EDGE_CURVE ( 'NONE', #144, #140, #36, .T. ) ;
#208 = APPLICATION_CONTEXT ( 'configuration controlled 3d designs of mechanical parts and assemblies' ) ;
#209 = CC_DESIGN_SECURITY_CLASSIFICATION ( #164, ( #153 ) ) ;
#210 = CIRCLE ( 'NONE', #17, 13.01999999999999957 ) ;
#211 = CC_DESIGN_DATE_AND_TIME_ASSIGNMENT ( #203, #268, ( #240 ) ) ;
#212 = VECTOR ( 'NONE', #81, 1000.000000000000000 ) ;
#213 = APPROVAL_PERSON_ORGANIZATION ( #216, #34, #224 ) ;
#214 = CARTESIAN_POINT ( 'NONE',  ( 0.0000000000000000000, 0.0000000000000000000, -1.996525414567110523 ) ) ;
#215 = CARTESIAN_POINT ( 'NONE',  ( 0.0000000000000000000, 0.0000000000000000000, 0.0000000000000000000 ) ) ;
#216 = PERSON_AND_ORGANIZATION ( #61, #242 ) ;
#217 = ORIENTED_EDGE ( 'NONE', *, *, #137, .F. ) ;
#218 = CARTESIAN_POINT ( 'NONE',  ( -6.349999999999998757, 7.776507174585691177E-16, -0.2500000000000045519 ) ) ;
#219 = DIRECTION ( 'NONE',  ( -1.224646799147353454E-16, -1.000000000000000000, 0.0000000000000000000 ) ) ;
#220 = DIRECTION ( 'NONE',  ( 0.0000000000000000000, 0.0000000000000000000, -1.000000000000000000 ) ) ;
#221 = PERSON_AND_ORGANIZATION ( #61, #242 ) ;
#222 = CARTESIAN_POINT ( 'NONE',  ( -7.776507174585692163E-16, -6.349999999999998757, -1.996525414567110523 ) ) ;
#223 = AXIS2_PLACEMENT_3D ( 'NONE', #215, #5, #79 ) ;
#224 = APPROVAL_ROLE ( '' ) ;
#225 = ORIENTED_EDGE ( 'NONE', *, *, #3, .F. ) ;
#226 = ADVANCED_FACE ( 'NONE', ( #99 ), #42, .T. ) ;
#227 = COORDINATED_UNIVERSAL_TIME_OFFSET ( 5, 0, .BEHIND. ) ;
#228 = CC_DESIGN_APPROVAL ( #34, ( #164 ) ) ;
#229 = DIRECTION ( 'NONE',  ( 1.000000000000000000, 0.0000000000000000000, 0.0000000000000000000 ) ) ;
#230 = FACE_OUTER_BOUND ( 'NONE', #160, .T. ) ;
#231 = EDGE_CURVE ( 'NONE', #135, #25, #52, .T. ) ;
#232 = CIRCLE ( 'NONE', #54, 13.01999999999999957 ) ;
#233 = CARTESIAN_POINT ( 'NONE',  ( 0.0000000000000000000, 0.0000000000000000000, 0.0000000000000000000 ) ) ;
#234 = PERSON_AND_ORGANIZATION ( #61, #242 ) ;
#235 =( GEOMETRIC_REPRESENTATION_CONTEXT ( 3 ) GLOBAL_UNCERTAINTY_ASSIGNED_CONTEXT ( ( #49 ) ) GLOBAL_UNIT_ASSIGNED_CONTEXT ( ( #199, #262, #201 ) ) REPRESENTATION_CONTEXT ( 'NONE', 'WORKASPACE' ) );
#236 = DIRECTION ( 'NONE',  ( 0.0000000000000000000, 1.000000000000000000, 0.0000000000000000000 ) ) ;
#237 = DIRECTION ( 'NONE',  ( 0.0000000000000000000, 0.0000000000000000000, -1.000000000000000000 ) ) ;
#238 = ORIENTED_EDGE ( 'NONE', *, *, #33, .T. ) ;
#239 = DIRECTION ( 'NONE',  ( 1.000000000000000000, 0.0000000000000000000, 0.0000000000000000000 ) ) ;
#240 = PRODUCT_DEFINITION ( 'UNKNOWN', '', #153, #89 ) ;
#241 = DIRECTION ( 'NONE',  ( -0.0000000000000000000, -0.0000000000000000000, 1.000000000000000000 ) ) ;
#242 = ORGANIZATION ( 'UNSPECIFIED', 'UNSPECIFIED', '' ) ;
#243 = ORIENTED_EDGE ( 'NONE', *, *, #143, .F. ) ;
#244 = DIRECTION ( 'NONE',  ( 0.0000000000000000000, 0.0000000000000000000, -1.000000000000000000 ) ) ;
#245 = VERTEX_POINT ( 'NONE', #194 ) ;
#246 = DIRECTION ( 'NONE',  ( 1.000000000000000000, 0.0000000000000000000, 0.0000000000000000000 ) ) ;
#247 = PERSON_AND_ORGANIZATION ( #61, #242 ) ;
#248 = APPROVAL_STATUS ( 'not_yet_approved' ) ;
#249 = ORIENTED_EDGE ( 'NONE', *, *, #143, .T. ) ;
#250 = ADVANCED_FACE ( 'NONE', ( #188 ), #24, .F. ) ;
#251 = DIRECTION ( 'NONE',  ( 0.0000000000000000000, 0.0000000000000000000, 1.000000000000000000 ) ) ;
#252 = ORIENTED_EDGE ( 'NONE', *, *, #186, .F. ) ;
#253 = AXIS2_PLACEMENT_3D ( 'NONE', #85, #193, #31 ) ;
#254 = ORIENTED_EDGE ( 'NONE', *, *, #207, .T. ) ;
#255 = VECTOR ( 'NONE', #110, 1000.000000000000000 ) ;
#256 = DIRECTION ( 'NONE',  ( -0.7071067811865463515, 0.0000000000000000000, -0.7071067811865487940 ) ) ;
#257 = EDGE_CURVE ( 'NONE', #185, #198, #205, .T. ) ;
#258 = CARTESIAN_POINT ( 'NONE',  ( 0.0000000000000000000, 7.972450662449270214E-16, -3.650000000000000355 ) ) ;
#259 = CARTESIAN_POINT ( 'NONE',  ( 6.099999999999995204, 7.470345474798848376E-16, 0.0000000000000000000 ) ) ;
#260 = LOCAL_TIME ( 14, 2, 1.000000000000000000, #77 ) ;
#261 = LINE ( 'NONE', #128, #29 ) ;
#262 =( NAMED_UNIT ( * ) PLANE_ANGLE_UNIT ( ) SI_UNIT ( $, .RADIAN. ) );
#263 = ORIENTED_EDGE ( 'NONE', *, *, #66, .F. ) ;
#264 = CYLINDRICAL_SURFACE ( 'NONE', #190, 6.349999999999998757 ) ;
#265 = CALENDAR_DATE ( 2019, 24, 10 ) ;
#266 = DIRECTION ( 'NONE',  ( -1.000000000000000000, 0.0000000000000000000, 0.0000000000000000000 ) ) ;
#267 = PERSON_AND_ORGANIZATION_ROLE ( 'creator' ) ;
#268 = DATE_TIME_ROLE ( 'creation_date' ) ;
#269 = ADVANCED_FACE ( 'NONE', ( #48 ), #264, .T. ) ;
#270 = CIRCLE ( 'NONE', #155, 6.349999999999997868 ) ;
#271 = ADVANCED_BREP_SHAPE_REPRESENTATION ( 'TTN188112-E0W', ( #184, #109 ), #235 ) ;
ENDSEC;
END-ISO-10303-21;
