ISO-10303-21;
HEADER;
FILE_DESCRIPTION (( 'STEP AP203' ),
    '1' );
FILE_NAME ('4323-E0W.STEP',
    '2015-06-17T20:45:47',
    ( 'admin' ),
    ( '' ),
    'SwSTEP 2.0',
    'SolidWorks 2014',
    '' );
FILE_SCHEMA (( 'CONFIG_CONTROL_DESIGN' ));
ENDSEC;

DATA;
#1 = CARTESIAN_POINT ( 'NONE',  ( 0.0000000000000000000, 0.0000000000000000000, -135.9000000000000300 ) ) ;
#2 = CARTESIAN_POINT ( 'NONE',  ( 0.0000000000000000000, 0.0000000000000000000, -0.7622346614793718000 ) ) ;
#3 = ADVANCED_FACE ( 'NONE', ( #19 ), #268, .T. ) ;
#4 = ORIENTED_EDGE ( 'NONE', *, *, #285, .F. ) ;
#5 = DIRECTION ( 'NONE',  ( 0.0000000000000000000, 0.0000000000000000000, -1.000000000000000000 ) ) ;
#6 = DIRECTION ( 'NONE',  ( -1.000000000000000000, 0.0000000000000000000, 0.0000000000000000000 ) ) ;
#7 = DIRECTION ( 'NONE',  ( -1.000000000000000000, 0.0000000000000000000, 0.0000000000000000000 ) ) ;
#8 = VERTEX_POINT ( 'NONE', #222 ) ;
#9 = VERTEX_POINT ( 'NONE', #319 ) ;
#10 = APPROVAL_PERSON_ORGANIZATION ( #89, #294, #168 ) ;
#11 = CARTESIAN_POINT ( 'NONE',  ( 0.0000000000000000000, 0.0000000000000000000, -135.9000000000000300 ) ) ;
#12 = AXIS2_PLACEMENT_3D ( 'NONE', #40, #198, #220 ) ;
#13 = DIRECTION ( 'NONE',  ( 0.0000000000000000000, 1.000000000000000000, 0.0000000000000000000 ) ) ;
#14 = EDGE_CURVE ( 'NONE', #256, #9, #51, .T. ) ;
#15 = CARTESIAN_POINT ( 'NONE',  ( 12.69999999999999900, 0.0000000000000000000, -0.7622346614793715800 ) ) ;
#16 = ORIENTED_EDGE ( 'NONE', *, *, #108, .T. ) ;
#17 = CARTESIAN_POINT ( 'NONE',  ( 0.0000000000000000000, 0.0000000000000000000, 0.7622346614793718000 ) ) ;
#18 = CONICAL_SURFACE ( 'NONE', #253, 12.45129548496520800, 0.7391504286827181900 ) ;
#19 = FACE_OUTER_BOUND ( 'NONE', #129, .T. ) ;
#20 = APPROVAL ( #181, 'UNSPECIFIED' ) ;
#21 = EDGE_LOOP ( 'NONE', ( #201, #35, #77, #161, #170 ) ) ;
#22 = DIRECTION ( 'NONE',  ( 0.6736602866565467600, 0.0000000000000000000, 0.7390411478272499400 ) ) ;
#23 = LINE ( 'NONE', #84, #73 ) ;
#24 = ORIENTED_EDGE ( 'NONE', *, *, #300, .T. ) ;
#25 = EDGE_CURVE ( 'NONE', #225, #245, #23, .T. ) ;
#26 = PERSON_AND_ORGANIZATION ( #93, #194 ) ;
#27 = DIRECTION ( 'NONE',  ( 1.000000000000000000, 0.0000000000000000000, 0.0000000000000000000 ) ) ;
#28 = CARTESIAN_POINT ( 'NONE',  ( 0.0000000000000000000, 0.0000000000000000000, 1.035076736189410900 ) ) ;
#29 = EDGE_LOOP ( 'NONE', ( #180, #88, #306, #47 ) ) ;
#30 = CARTESIAN_POINT ( 'NONE',  ( 0.0000000000000000000, 0.0000000000000000000, -135.9000000000000300 ) ) ;
#31 = DATE_AND_TIME ( #151, #54 ) ;
#32 = CARTESIAN_POINT ( 'NONE',  ( 12.45129548496521500, 1.540072675503596300E-015, 1.035076736189410900 ) ) ;
#33 = ADVANCED_FACE ( 'NONE', ( #100 ), #68, .T. ) ;
#34 = EDGE_LOOP ( 'NONE', ( #283, #287, #303, #237 ) ) ;
#35 = ORIENTED_EDGE ( 'NONE', *, *, #119, .T. ) ;
#36 = CIRCLE ( 'NONE', #136, 137.5000000000000000 ) ;
#37 = EDGE_LOOP ( 'NONE', ( #343, #366, #128, #279 ) ) ;
#38 = PERSON_AND_ORGANIZATION_ROLE ( 'creator' ) ;
#39 = DIRECTION ( 'NONE',  ( -0.0000000000000000000, -0.0000000000000000000, 1.000000000000000000 ) ) ;
#40 = CARTESIAN_POINT ( 'NONE',  ( 0.0000000000000000000, 0.0000000000000000000, -0.7622346614793718000 ) ) ;
#41 = CARTESIAN_POINT ( 'NONE',  ( 0.0000000000000000000, 0.0000000000000000000, 1.600000000000000100 ) ) ;
#42 = CC_DESIGN_PERSON_AND_ORGANIZATION_ASSIGNMENT ( #26, #349, ( #95 ) ) ;
#43 = CARTESIAN_POINT ( 'NONE',  ( 0.0000000000000000000, 0.0000000000000000000, -1.035076736189410900 ) ) ;
#44 = ORIENTED_EDGE ( 'NONE', *, *, #90, .F. ) ;
#45 = DIRECTION ( 'NONE',  ( -0.0000000000000000000, -0.0000000000000000000, 1.000000000000000000 ) ) ;
#46 = LOCAL_TIME ( 16, 45, 47.00000000000000000, #171 ) ;
#47 = ORIENTED_EDGE ( 'NONE', *, *, #144, .T. ) ;
#48 = PERSON_AND_ORGANIZATION_ROLE ( 'classification_officer' ) ;
#49 = ORIENTED_EDGE ( 'NONE', *, *, #55, .F. ) ;
#50 = EDGE_CURVE ( 'NONE', #8, #245, #339, .T. ) ;
#51 = CIRCLE ( 'NONE', #323, 137.5000000000000000 ) ;
#52 = ORIENTED_EDGE ( 'NONE', *, *, #25, .F. ) ;
#53 =( GEOMETRIC_REPRESENTATION_CONTEXT ( 3 ) GLOBAL_UNCERTAINTY_ASSIGNED_CONTEXT ( ( #360 ) ) GLOBAL_UNIT_ASSIGNED_CONTEXT ( ( #224, #85, #127 ) ) REPRESENTATION_CONTEXT ( 'NONE', 'WORKASPACE' ) );
#54 = LOCAL_TIME ( 16, 45, 47.00000000000000000, #120 ) ;
#55 = EDGE_CURVE ( 'NONE', #295, #192, #101, .T. ) ;
#56 = AXIS2_PLACEMENT_3D ( 'NONE', #357, #280, #141 ) ;
#57 = ADVANCED_FACE ( 'NONE', ( #146 ), #140, .T. ) ;
#58 = AXIS2_PLACEMENT_3D ( 'NONE', #1, #213, #175 ) ;
#59 = DIRECTION ( 'NONE',  ( 0.0000000000000000000, 0.0000000000000000000, -1.000000000000000000 ) ) ;
#60 = CIRCLE ( 'NONE', #190, 12.45129548496521300 ) ;
#61 = ORIENTED_EDGE ( 'NONE', *, *, #165, .F. ) ;
#62 = AXIS2_PLACEMENT_3D ( 'NONE', #361, #322, #7 ) ;
#63 = DIRECTION ( 'NONE',  ( 0.0000000000000000000, 0.0000000000000000000, -1.000000000000000000 ) ) ;
#64 = CARTESIAN_POINT ( 'NONE',  ( -12.69999999999999900, 1.555301434917138400E-015, 1.600000000000000100 ) ) ;
#65 = APPLICATION_PROTOCOL_DEFINITION ( 'international standard', 'config_control_design', 1994, #257 ) ;
#66 = EDGE_LOOP ( 'NONE', ( #313, #304, #72, #44 ) ) ;
#67 = DIRECTION ( 'NONE',  ( -0.0000000000000000000, -0.0000000000000000000, 1.000000000000000000 ) ) ;
#68 = CYLINDRICAL_SURFACE ( 'NONE', #210, 12.69999999999999900 ) ;
#69 = AXIS2_PLACEMENT_3D ( 'NONE', #11, #333, #338 ) ;
#70 = FACE_OUTER_BOUND ( 'NONE', #184, .T. ) ;
#71 = DIRECTION ( 'NONE',  ( -0.0000000000000000000, -0.0000000000000000000, 1.000000000000000000 ) ) ;
#72 = ORIENTED_EDGE ( 'NONE', *, *, #261, .T. ) ;
#73 = VECTOR ( 'NONE', #97, 1000.000000000000000 ) ;
#74 = APPLICATION_PROTOCOL_DEFINITION ( 'international standard', 'config_control_design', 1994, #325 ) ;
#75 = DIRECTION ( 'NONE',  ( 1.000000000000000000, 0.0000000000000000000, 0.0000000000000000000 ) ) ;
#76 = DESIGN_CONTEXT ( 'detailed design', #257, 'design' ) ;
#77 = ORIENTED_EDGE ( 'NONE', *, *, #50, .F. ) ;
#78 = CARTESIAN_POINT ( 'NONE',  ( -12.69999999999999900, 1.555301434917138400E-015, -0.7622346614793718000 ) ) ;
#79 = CC_DESIGN_APPROVAL ( #20, ( #250 ) ) ;
#80 = VERTEX_POINT ( 'NONE', #32 ) ;
#81 = DIRECTION ( 'NONE',  ( -0.6736602866565467600, 8.249959137666285600E-017, 0.7390411478272499400 ) ) ;
#82 = CIRCLE ( 'NONE', #176, 12.69999999999999900 ) ;
#83 = ORIENTED_EDGE ( 'NONE', *, *, #14, .T. ) ;
#84 = CARTESIAN_POINT ( 'NONE',  ( 12.69999999999999900, 0.0000000000000000000, 1.600000000000000100 ) ) ;
#85 =( NAMED_UNIT ( * ) PLANE_ANGLE_UNIT ( ) SI_UNIT ( $, .RADIAN. ) );
#86 = CARTESIAN_POINT ( 'NONE',  ( 0.0000000000000000000, 0.0000000000000000000, 1.600000000000000100 ) ) ;
#87 = AXIS2_PLACEMENT_3D ( 'NONE', #138, #45, #125 ) ;
#88 = ORIENTED_EDGE ( 'NONE', *, *, #133, .T. ) ;
#89 = PERSON_AND_ORGANIZATION ( #93, #194 ) ;
#90 = EDGE_CURVE ( 'NONE', #135, #265, #112, .T. ) ;
#91 = CALENDAR_DATE ( 2015, 17, 6 ) ;
#92 = AXIS2_PLACEMENT_3D ( 'NONE', #331, #166, #341 ) ;
#93 = PERSON ( 'UNSPECIFIED', 'UNSPECIFIED', 'UNSPECIFIED', ('UNSPECIFIED'), ('UNSPECIFIED'), ('UNSPECIFIED') ) ;
#94 = CARTESIAN_POINT ( 'NONE',  ( -12.45129548496521500, 0.0000000000000000000, 1.035076736189410900 ) ) ;
#95 = PRODUCT ( '4323-E0W', '4323-E0W', '', ( #359 ) ) ;
#96 = CIRCLE ( 'NONE', #87, 12.45129548496521300 ) ;
#97 = DIRECTION ( 'NONE',  ( -0.0000000000000000000, -0.0000000000000000000, 1.000000000000000000 ) ) ;
#98 = EDGE_CURVE ( 'NONE', #225, #192, #82, .T. ) ;
#99 = PERSON_AND_ORGANIZATION ( #93, #194 ) ;
#100 = FACE_OUTER_BOUND ( 'NONE', #37, .T. ) ;
#101 = LINE ( 'NONE', #78, #277 ) ;
#102 = DIRECTION ( 'NONE',  ( 1.000000000000000000, 0.0000000000000000000, 0.0000000000000000000 ) ) ;
#103 = EDGE_CURVE ( 'NONE', #135, #219, #96, .T. ) ;
#104 = ORIENTED_EDGE ( 'NONE', *, *, #133, .F. ) ;
#105 = PERSON_AND_ORGANIZATION ( #93, #194 ) ;
#106 = DIRECTION ( 'NONE',  ( -0.0000000000000000000, -0.0000000000000000000, 1.000000000000000000 ) ) ;
#107 = SPHERICAL_SURFACE ( 'NONE', #143, 137.5000000000000000 ) ;
#108 = EDGE_CURVE ( 'NONE', #9, #295, #60, .T. ) ;
#109 = DIRECTION ( 'NONE',  ( -1.224646799147353200E-016, -1.000000000000000000, 0.0000000000000000000 ) ) ;
#110 = AXIS2_PLACEMENT_3D ( 'NONE', #344, #63, #215 ) ;
#111 = ORIENTED_EDGE ( 'NONE', *, *, #144, .F. ) ;
#112 = CIRCLE ( 'NONE', #58, 137.5000000000000000 ) ;
#113 = SPHERICAL_SURFACE ( 'NONE', #221, 137.5000000000000000 ) ;
#114 = ADVANCED_FACE ( 'NONE', ( #291 ), #107, .T. ) ;
#115 = EDGE_CURVE ( 'NONE', #192, #8, #272, .T. ) ;
#116 = PERSON_AND_ORGANIZATION ( #93, #194 ) ;
#117 = DIRECTION ( 'NONE',  ( 1.000000000000000000, 0.0000000000000000000, 0.0000000000000000000 ) ) ;
#118 = CARTESIAN_POINT ( 'NONE',  ( 0.0000000000000000000, 8.419446744138054100E-015, -1.599999999999990300 ) ) ;
#119 = EDGE_CURVE ( 'NONE', #80, #245, #365, .T. ) ;
#120 = COORDINATED_UNIVERSAL_TIME_OFFSET ( 5, 0, .BEHIND. ) ;
#121 = DIRECTION ( 'NONE',  ( -1.000000000000000000, 0.0000000000000000000, 0.0000000000000000000 ) ) ;
#122 = AXIS2_PLACEMENT_3D ( 'NONE', #17, #5, #212 ) ;
#123 = ORIENTED_EDGE ( 'NONE', *, *, #119, .F. ) ;
#124 = CIRCLE ( 'NONE', #231, 12.45129548496521300 ) ;
#125 = DIRECTION ( 'NONE',  ( -1.000000000000000000, 0.0000000000000000000, 0.0000000000000000000 ) ) ;
#126 = AXIS2_PLACEMENT_3D ( 'NONE', #309, #235, #13 ) ;
#127 =( NAMED_UNIT ( * ) SI_UNIT ( $, .STERADIAN. ) SOLID_ANGLE_UNIT ( ) );
#128 = ORIENTED_EDGE ( 'NONE', *, *, #25, .T. ) ;
#129 = EDGE_LOOP ( 'NONE', ( #104, #83, #16, #318 ) ) ;
#130 = FACE_OUTER_BOUND ( 'NONE', #29, .T. ) ;
#131 = ORIENTED_EDGE ( 'NONE', *, *, #178, .F. ) ;
#132 = CARTESIAN_POINT ( 'NONE',  ( 12.45129548496521500, 0.0000000000000000000, -1.035076736189410900 ) ) ;
#133 = EDGE_CURVE ( 'NONE', #256, #326, #36, .T. ) ;
#134 = ORIENTED_EDGE ( 'NONE', *, *, #202, .F. ) ;
#135 = VERTEX_POINT ( 'NONE', #266 ) ;
#136 = AXIS2_PLACEMENT_3D ( 'NONE', #251, #117, #154 ) ;
#137 = LINE ( 'NONE', #347, #227 ) ;
#138 = CARTESIAN_POINT ( 'NONE',  ( 0.0000000000000000000, 0.0000000000000000000, 1.035076736189410900 ) ) ;
#139 = DIRECTION ( 'NONE',  ( -1.000000000000000000, 0.0000000000000000000, 0.0000000000000000000 ) ) ;
#140 = CONICAL_SURFACE ( 'NONE', #157, 12.69999999999999900, 0.7391504286827181900 ) ;
#141 = DIRECTION ( 'NONE',  ( 1.000000000000000000, 0.0000000000000000000, 0.0000000000000000000 ) ) ;
#142 = ADVANCED_FACE ( 'NONE', ( #327 ), #211, .T. ) ;
#143 = AXIS2_PLACEMENT_3D ( 'NONE', #30, #308, #293 ) ;
#144 = EDGE_CURVE ( 'NONE', #177, #9, #284, .T. ) ;
#145 = CARTESIAN_POINT ( 'NONE',  ( 0.0000000000000000000, 0.0000000000000000000, 135.9000000000000300 ) ) ;
#146 = FACE_OUTER_BOUND ( 'NONE', #269, .T. ) ;
#147 = CARTESIAN_POINT ( 'NONE',  ( 0.0000000000000000000, 0.0000000000000000000, -1.035076736189410900 ) ) ;
#148 = CARTESIAN_POINT ( 'NONE',  ( 0.0000000000000000000, 0.0000000000000000000, 1.035076736189410900 ) ) ;
#149 = APPROVAL_ROLE ( '' ) ;
#150 = DIRECTION ( 'NONE',  ( -0.0000000000000000000, -0.0000000000000000000, 1.000000000000000000 ) ) ;
#151 = CALENDAR_DATE ( 2015, 17, 6 ) ;
#152 = APPROVAL_DATE_TIME ( #158, #350 ) ;
#153 = DIRECTION ( 'NONE',  ( 0.0000000000000000000, 1.000000000000000000, 0.0000000000000000000 ) ) ;
#154 = DIRECTION ( 'NONE',  ( 0.0000000000000000000, 0.0000000000000000000, -1.000000000000000000 ) ) ;
#155 = EDGE_LOOP ( 'NONE', ( #123, #270, #131, #24, #216 ) ) ;
#156 = ORIENTED_EDGE ( 'NONE', *, *, #98, .F. ) ;
#157 = AXIS2_PLACEMENT_3D ( 'NONE', #2, #230, #102 ) ;
#158 = DATE_AND_TIME ( #163, #364 ) ;
#159 = ORIENTED_EDGE ( 'NONE', *, *, #285, .T. ) ;
#160 = CARTESIAN_POINT ( 'NONE',  ( -1.524843916090053700E-015, -12.45129548496521100, 1.035076736189410900 ) ) ;
#161 = ORIENTED_EDGE ( 'NONE', *, *, #300, .F. ) ;
#162 = CC_DESIGN_DATE_AND_TIME_ASSIGNMENT ( #242, #263, ( #250 ) ) ;
#163 = CALENDAR_DATE ( 2015, 17, 6 ) ;
#164 = SHAPE_DEFINITION_REPRESENTATION ( #346, #182 ) ;
#165 = EDGE_CURVE ( 'NONE', #326, #177, #124, .T. ) ;
#166 = DIRECTION ( 'NONE',  ( 0.0000000000000000000, 0.0000000000000000000, 1.000000000000000000 ) ) ;
#167 = ADVANCED_FACE ( 'NONE', ( #340 ), #307, .T. ) ;
#168 = APPROVAL_ROLE ( '' ) ;
#169 = ORIENTED_EDGE ( 'NONE', *, *, #281, .F. ) ;
#170 = ORIENTED_EDGE ( 'NONE', *, *, #103, .F. ) ;
#171 = COORDINATED_UNIVERSAL_TIME_OFFSET ( 5, 0, .BEHIND. ) ;
#172 = PRODUCT_RELATED_PRODUCT_CATEGORY ( 'detail', '', ( #95 ) ) ;
#173 = EDGE_LOOP ( 'NONE', ( #49, #298, #111, #159, #169 ) ) ;
#174 = DIRECTION ( 'NONE',  ( 0.0000000000000000000, 0.0000000000000000000, -1.000000000000000000 ) ) ;
#175 = DIRECTION ( 'NONE',  ( 0.0000000000000000000, 0.0000000000000000000, -1.000000000000000000 ) ) ;
#176 = AXIS2_PLACEMENT_3D ( 'NONE', #289, #106, #75 ) ;
#177 = VERTEX_POINT ( 'NONE', #132 ) ;
#178 = EDGE_CURVE ( 'NONE', #219, #310, #315, .T. ) ;
#179 = APPROVAL_DATE_TIME ( #264, #294 ) ;
#180 = ORIENTED_EDGE ( 'NONE', *, *, #14, .F. ) ;
#181 = APPROVAL_STATUS ( 'not_yet_approved' ) ;
#182 = ADVANCED_BREP_SHAPE_REPRESENTATION ( '4323-E0W', ( #191, #92 ), #53 ) ;
#183 = CARTESIAN_POINT ( 'NONE',  ( 0.0000000000000000000, 8.419446744138054100E-015, 1.599999999999990300 ) ) ;
#184 = EDGE_LOOP ( 'NONE', ( #223, #351, #363, #52 ) ) ;
#185 = DATE_TIME_ROLE ( 'creation_date' ) ;
#186 = CC_DESIGN_SECURITY_CLASSIFICATION ( #250, ( #312 ) ) ;
#187 = CARTESIAN_POINT ( 'NONE',  ( -12.69999999999999900, 1.555301434917138400E-015, -0.7622346614793715800 ) ) ;
#188 = CARTESIAN_POINT ( 'NONE',  ( 0.0000000000000000000, 0.0000000000000000000, 1.035076736189410900 ) ) ;
#189 = EDGE_CURVE ( 'NONE', #310, #80, #345, .T. ) ;
#190 = AXIS2_PLACEMENT_3D ( 'NONE', #200, #59, #193 ) ;
#191 = MANIFOLD_SOLID_BREP ( '4323-001-1-solid1', #207 ) ;
#192 = VERTEX_POINT ( 'NONE', #187 ) ;
#193 = DIRECTION ( 'NONE',  ( 1.000000000000000000, 0.0000000000000000000, 0.0000000000000000000 ) ) ;
#194 = ORGANIZATION ( 'UNSPECIFIED', 'UNSPECIFIED', '' ) ;
#195 = DIRECTION ( 'NONE',  ( -1.000000000000000000, 0.0000000000000000000, 0.0000000000000000000 ) ) ;
#196 = CARTESIAN_POINT ( 'NONE',  ( 0.0000000000000000000, 0.0000000000000000000, -135.9000000000000300 ) ) ;
#197 = AXIS2_PLACEMENT_3D ( 'NONE', #147, #260, #206 ) ;
#198 = DIRECTION ( 'NONE',  ( -0.0000000000000000000, -0.0000000000000000000, 1.000000000000000000 ) ) ;
#199 = COORDINATED_UNIVERSAL_TIME_OFFSET ( 5, 0, .BEHIND. ) ;
#200 = CARTESIAN_POINT ( 'NONE',  ( 0.0000000000000000000, 0.0000000000000000000, -1.035076736189410900 ) ) ;
#201 = ORIENTED_EDGE ( 'NONE', *, *, #292, .F. ) ;
#202 = EDGE_CURVE ( 'NONE', #295, #326, #214, .T. ) ;
#203 = PERSON_AND_ORGANIZATION ( #93, #194 ) ;
#204 = DIRECTION ( 'NONE',  ( 1.000000000000000000, 0.0000000000000000000, 0.0000000000000000000 ) ) ;
#205 = COORDINATED_UNIVERSAL_TIME_OFFSET ( 5, 0, .BEHIND. ) ;
#206 = DIRECTION ( 'NONE',  ( 1.000000000000000000, 0.0000000000000000000, 0.0000000000000000000 ) ) ;
#207 = CLOSED_SHELL ( 'NONE', ( #167, #57, #3, #229, #335, #114, #33, #278, #142, #254 ) ) ;
#208 = CARTESIAN_POINT ( 'NONE',  ( 0.0000000000000000000, 0.0000000000000000000, 135.9000000000000300 ) ) ;
#209 = COORDINATED_UNIVERSAL_TIME_OFFSET ( 5, 0, .BEHIND. ) ;
#210 = AXIS2_PLACEMENT_3D ( 'NONE', #86, #67, #248 ) ;
#211 = CONICAL_SURFACE ( 'NONE', #12, 12.69999999999999900, 0.7391504286827181900 ) ;
#212 = DIRECTION ( 'NONE',  ( -1.000000000000000000, 0.0000000000000000000, 0.0000000000000000000 ) ) ;
#213 = DIRECTION ( 'NONE',  ( 1.000000000000000000, -0.0000000000000000000, 0.0000000000000000000 ) ) ;
#214 = CIRCLE ( 'NONE', #56, 12.45129548496521300 ) ;
#215 = DIRECTION ( 'NONE',  ( -1.000000000000000000, 0.0000000000000000000, 0.0000000000000000000 ) ) ;
#216 = ORIENTED_EDGE ( 'NONE', *, *, #353, .F. ) ;
#217 = SPHERICAL_SURFACE ( 'NONE', #69, 137.5000000000000000 ) ;
#218 = CARTESIAN_POINT ( 'NONE',  ( 12.69999999999999900, 0.0000000000000000000, 0.7622346614793718000 ) ) ;
#219 = VERTEX_POINT ( 'NONE', #94 ) ;
#220 = DIRECTION ( 'NONE',  ( 1.000000000000000000, 0.0000000000000000000, 0.0000000000000000000 ) ) ;
#221 = AXIS2_PLACEMENT_3D ( 'NONE', #208, #195, #153 ) ;
#222 = CARTESIAN_POINT ( 'NONE',  ( -12.69999999999999900, 1.555301434917138400E-015, 0.7622346614793718000 ) ) ;
#223 = ORIENTED_EDGE ( 'NONE', *, *, #98, .T. ) ;
#224 =( LENGTH_UNIT ( ) NAMED_UNIT ( * ) SI_UNIT ( .MILLI., .METRE. ) );
#225 = VERTEX_POINT ( 'NONE', #15 ) ;
#226 = VECTOR ( 'NONE', #286, 1000.000000000000000 ) ;
#227 = VECTOR ( 'NONE', #22, 1000.000000000000100 ) ;
#228 = AXIS2_PLACEMENT_3D ( 'NONE', #297, #241, #6 ) ;
#229 = ADVANCED_FACE ( 'NONE', ( #70 ), #243, .T. ) ;
#230 = DIRECTION ( 'NONE',  ( -0.0000000000000000000, -0.0000000000000000000, 1.000000000000000000 ) ) ;
#231 = AXIS2_PLACEMENT_3D ( 'NONE', #43, #174, #27 ) ;
#232 = PRODUCT_DEFINITION ( 'UNKNOWN', '', #312, #76 ) ;
#233 = FACE_OUTER_BOUND ( 'NONE', #66, .T. ) ;
#234 = SECURITY_CLASSIFICATION_LEVEL ( 'unclassified' ) ;
#235 = DIRECTION ( 'NONE',  ( -1.000000000000000000, 0.0000000000000000000, 0.0000000000000000000 ) ) ;
#236 = AXIS2_PLACEMENT_3D ( 'NONE', #275, #324, #314 ) ;
#237 = ORIENTED_EDGE ( 'NONE', *, *, #90, .T. ) ;
#238 = LOCAL_TIME ( 16, 45, 47.00000000000000000, #209 ) ;
#239 = AXIS2_PLACEMENT_3D ( 'NONE', #41, #150, #204 ) ;
#240 = DIRECTION ( 'NONE',  ( -1.000000000000000000, 0.0000000000000000000, 0.0000000000000000000 ) ) ;
#241 = DIRECTION ( 'NONE',  ( 0.0000000000000000000, 0.0000000000000000000, -1.000000000000000000 ) ) ;
#242 = DATE_AND_TIME ( #301, #238 ) ;
#243 = CYLINDRICAL_SURFACE ( 'NONE', #239, 12.69999999999999900 ) ;
#244 = AXIS2_PLACEMENT_3D ( 'NONE', #148, #71, #240 ) ;
#245 = VERTEX_POINT ( 'NONE', #218 ) ;
#246 = DIRECTION ( 'NONE',  ( -1.224646799147353200E-016, -1.000000000000000000, 0.0000000000000000000 ) ) ;
#247 = CC_DESIGN_PERSON_AND_ORGANIZATION_ASSIGNMENT ( #99, #48, ( #250 ) ) ;
#248 = DIRECTION ( 'NONE',  ( 1.000000000000000000, 0.0000000000000000000, 0.0000000000000000000 ) ) ;
#249 = VECTOR ( 'NONE', #252, 1000.000000000000100 ) ;
#250 = SECURITY_CLASSIFICATION ( '', '', #234 ) ;
#251 = CARTESIAN_POINT ( 'NONE',  ( 0.0000000000000000000, 0.0000000000000000000, 135.9000000000000300 ) ) ;
#252 = DIRECTION ( 'NONE',  ( 0.6736602866565467600, 8.249959137666285600E-017, -0.7390411478272499400 ) ) ;
#253 = AXIS2_PLACEMENT_3D ( 'NONE', #188, #311, #121 ) ;
#254 = ADVANCED_FACE ( 'NONE', ( #352 ), #18, .T. ) ;
#255 = APPROVAL_PERSON_ORGANIZATION ( #316, #350, #149 ) ;
#256 = VERTEX_POINT ( 'NONE', #118 ) ;
#257 = APPLICATION_CONTEXT ( 'configuration controlled 3d designs of mechanical parts and assemblies' ) ;
#258 = AXIS2_PLACEMENT_3D ( 'NONE', #196, #337, #246 ) ;
#259 = APPROVAL_PERSON_ORGANIZATION ( #105, #20, #362 ) ;
#260 = DIRECTION ( 'NONE',  ( 0.0000000000000000000, 0.0000000000000000000, -1.000000000000000000 ) ) ;
#261 = EDGE_CURVE ( 'NONE', #310, #265, #321, .T. ) ;
#262 = AXIS2_PLACEMENT_3D ( 'NONE', #28, #39, #139 ) ;
#263 = DATE_TIME_ROLE ( 'classification_date' ) ;
#264 = DATE_AND_TIME ( #91, #46 ) ;
#265 = VERTEX_POINT ( 'NONE', #183 ) ;
#266 = CARTESIAN_POINT ( 'NONE',  ( 0.0000000000000000000, 12.45129548496521100, 1.035076736189410900 ) ) ;
#267 = CC_DESIGN_PERSON_AND_ORGANIZATION_ASSIGNMENT ( #116, #358, ( #312 ) ) ;
#268 = SPHERICAL_SURFACE ( 'NONE', #126, 137.5000000000000000 ) ;
#269 = EDGE_LOOP ( 'NONE', ( #134, #342, #156, #4, #61 ) ) ;
#270 = ORIENTED_EDGE ( 'NONE', *, *, #189, .F. ) ;
#271 = PERSON_AND_ORGANIZATION ( #93, #194 ) ;
#272 = LINE ( 'NONE', #64, #226 ) ;
#273 = DIRECTION ( 'NONE',  ( -1.000000000000000000, 1.224646799147353200E-016, 0.0000000000000000000 ) ) ;
#274 = APPROVAL_STATUS ( 'not_yet_approved' ) ;
#275 = CARTESIAN_POINT ( 'NONE',  ( 0.0000000000000000000, 0.0000000000000000000, -0.7622346614793715800 ) ) ;
#276 = DATE_AND_TIME ( #288, #296 ) ;
#277 = VECTOR ( 'NONE', #81, 1000.000000000000100 ) ;
#278 = ADVANCED_FACE ( 'NONE', ( #130 ), #113, .T. ) ;
#279 = ORIENTED_EDGE ( 'NONE', *, *, #353, .T. ) ;
#280 = DIRECTION ( 'NONE',  ( 0.0000000000000000000, 0.0000000000000000000, -1.000000000000000000 ) ) ;
#281 = EDGE_CURVE ( 'NONE', #192, #225, #354, .T. ) ;
#282 = CC_DESIGN_PERSON_AND_ORGANIZATION_ASSIGNMENT ( #271, #367, ( #312 ) ) ;
#283 = ORIENTED_EDGE ( 'NONE', *, *, #261, .F. ) ;
#284 = CIRCLE ( 'NONE', #197, 12.45129548496521300 ) ;
#285 = EDGE_CURVE ( 'NONE', #177, #225, #137, .T. ) ;
#286 = DIRECTION ( 'NONE',  ( -0.0000000000000000000, -0.0000000000000000000, 1.000000000000000000 ) ) ;
#287 = ORIENTED_EDGE ( 'NONE', *, *, #189, .T. ) ;
#288 = CALENDAR_DATE ( 2015, 17, 6 ) ;
#289 = CARTESIAN_POINT ( 'NONE',  ( 0.0000000000000000000, 0.0000000000000000000, -0.7622346614793715800 ) ) ;
#290 = CC_DESIGN_APPROVAL ( #294, ( #312 ) ) ;
#291 = FACE_OUTER_BOUND ( 'NONE', #34, .T. ) ;
#292 = EDGE_CURVE ( 'NONE', #80, #135, #328, .T. ) ;
#293 = DIRECTION ( 'NONE',  ( 0.0000000000000000000, 1.000000000000000000, 0.0000000000000000000 ) ) ;
#294 = APPROVAL ( #348, 'UNSPECIFIED' ) ;
#295 = VERTEX_POINT ( 'NONE', #355 ) ;
#296 = LOCAL_TIME ( 16, 45, 47.00000000000000000, #205 ) ;
#297 = CARTESIAN_POINT ( 'NONE',  ( 0.0000000000000000000, 0.0000000000000000000, 1.035076736189410900 ) ) ;
#298 = ORIENTED_EDGE ( 'NONE', *, *, #108, .F. ) ;
#299 = CIRCLE ( 'NONE', #110, 12.69999999999999900 ) ;
#300 = EDGE_CURVE ( 'NONE', #219, #8, #320, .T. ) ;
#301 = CALENDAR_DATE ( 2015, 17, 6 ) ;
#302 = VECTOR ( 'NONE', #329, 1000.000000000000100 ) ;
#303 = ORIENTED_EDGE ( 'NONE', *, *, #292, .T. ) ;
#304 = ORIENTED_EDGE ( 'NONE', *, *, #178, .T. ) ;
#305 = CARTESIAN_POINT ( 'NONE',  ( 12.45129548496520800, 1.524843916090053400E-015, 1.035076736189410900 ) ) ;
#306 = ORIENTED_EDGE ( 'NONE', *, *, #165, .T. ) ;
#307 = CONICAL_SURFACE ( 'NONE', #228, 12.45129548496520800, 0.7391504286827181900 ) ;
#308 = DIRECTION ( 'NONE',  ( -1.000000000000000000, 0.0000000000000000000, 0.0000000000000000000 ) ) ;
#309 = CARTESIAN_POINT ( 'NONE',  ( 0.0000000000000000000, 0.0000000000000000000, 135.9000000000000300 ) ) ;
#310 = VERTEX_POINT ( 'NONE', #160 ) ;
#311 = DIRECTION ( 'NONE',  ( 0.0000000000000000000, 0.0000000000000000000, -1.000000000000000000 ) ) ;
#312 = PRODUCT_DEFINITION_FORMATION_WITH_SPECIFIED_SOURCE ( 'ANY', '', #95, .NOT_KNOWN. ) ;
#313 = ORIENTED_EDGE ( 'NONE', *, *, #103, .T. ) ;
#314 = DIRECTION ( 'NONE',  ( 1.000000000000000000, 0.0000000000000000000, 0.0000000000000000000 ) ) ;
#315 = CIRCLE ( 'NONE', #244, 12.45129548496521300 ) ;
#316 = PERSON_AND_ORGANIZATION ( #93, #194 ) ;
#317 = CC_DESIGN_DATE_AND_TIME_ASSIGNMENT ( #31, #185, ( #232 ) ) ;
#318 = ORIENTED_EDGE ( 'NONE', *, *, #202, .T. ) ;
#319 = CARTESIAN_POINT ( 'NONE',  ( -1.524843916090053700E-015, -12.45129548496521100, -1.035076736189410900 ) ) ;
#320 = LINE ( 'NONE', #330, #302 ) ;
#321 = CIRCLE ( 'NONE', #258, 137.5000000000000000 ) ;
#322 = DIRECTION ( 'NONE',  ( -0.0000000000000000000, -0.0000000000000000000, 1.000000000000000000 ) ) ;
#323 = AXIS2_PLACEMENT_3D ( 'NONE', #145, #273, #109 ) ;
#324 = DIRECTION ( 'NONE',  ( -0.0000000000000000000, -0.0000000000000000000, 1.000000000000000000 ) ) ;
#325 = APPLICATION_CONTEXT ( 'configuration controlled 3d designs of mechanical parts and assemblies' ) ;
#326 = VERTEX_POINT ( 'NONE', #336 ) ;
#327 = FACE_OUTER_BOUND ( 'NONE', #173, .T. ) ;
#328 = CIRCLE ( 'NONE', #62, 12.45129548496521300 ) ;
#329 = DIRECTION ( 'NONE',  ( -0.6736602866565467600, 0.0000000000000000000, -0.7390411478272499400 ) ) ;
#330 = CARTESIAN_POINT ( 'NONE',  ( -12.45129548496520800, 0.0000000000000000000, 1.035076736189410900 ) ) ;
#331 = CARTESIAN_POINT ( 'NONE',  ( 0.0000000000000000000, 0.0000000000000000000, 0.0000000000000000000 ) ) ;
#332 = APPROVAL_DATE_TIME ( #276, #20 ) ;
#333 = DIRECTION ( 'NONE',  ( -1.000000000000000000, 0.0000000000000000000, 0.0000000000000000000 ) ) ;
#334 = CC_DESIGN_PERSON_AND_ORGANIZATION_ASSIGNMENT ( #203, #38, ( #232 ) ) ;
#335 = ADVANCED_FACE ( 'NONE', ( #233 ), #217, .T. ) ;
#336 = CARTESIAN_POINT ( 'NONE',  ( 0.0000000000000000000, 12.45129548496521100, -1.035076736189410900 ) ) ;
#337 = DIRECTION ( 'NONE',  ( -1.000000000000000000, 1.224646799147353200E-016, 0.0000000000000000000 ) ) ;
#338 = DIRECTION ( 'NONE',  ( 0.0000000000000000000, 1.000000000000000000, 0.0000000000000000000 ) ) ;
#339 = CIRCLE ( 'NONE', #122, 12.69999999999999900 ) ;
#340 = FACE_OUTER_BOUND ( 'NONE', #21, .T. ) ;
#341 = DIRECTION ( 'NONE',  ( 1.000000000000000000, 0.0000000000000000000, 0.0000000000000000000 ) ) ;
#342 = ORIENTED_EDGE ( 'NONE', *, *, #55, .T. ) ;
#343 = ORIENTED_EDGE ( 'NONE', *, *, #115, .F. ) ;
#344 = CARTESIAN_POINT ( 'NONE',  ( 0.0000000000000000000, 0.0000000000000000000, 0.7622346614793718000 ) ) ;
#345 = CIRCLE ( 'NONE', #262, 12.45129548496521300 ) ;
#346 = PRODUCT_DEFINITION_SHAPE ( 'NONE', 'NONE',  #232 ) ;
#347 = CARTESIAN_POINT ( 'NONE',  ( 12.69999999999999900, 0.0000000000000000000, -0.7622346614793718000 ) ) ;
#348 = APPROVAL_STATUS ( 'not_yet_approved' ) ;
#349 = PERSON_AND_ORGANIZATION_ROLE ( 'design_owner' ) ;
#350 = APPROVAL ( #274, 'UNSPECIFIED' ) ;
#351 = ORIENTED_EDGE ( 'NONE', *, *, #115, .T. ) ;
#352 = FACE_OUTER_BOUND ( 'NONE', #155, .T. ) ;
#353 = EDGE_CURVE ( 'NONE', #245, #8, #299, .T. ) ;
#354 = CIRCLE ( 'NONE', #236, 12.69999999999999900 ) ;
#355 = CARTESIAN_POINT ( 'NONE',  ( -12.45129548496521500, 1.540072675503596300E-015, -1.035076736189410900 ) ) ;
#356 = CC_DESIGN_APPROVAL ( #350, ( #232 ) ) ;
#357 = CARTESIAN_POINT ( 'NONE',  ( 0.0000000000000000000, 0.0000000000000000000, -1.035076736189410900 ) ) ;
#358 = PERSON_AND_ORGANIZATION_ROLE ( 'design_supplier' ) ;
#359 = MECHANICAL_CONTEXT ( 'NONE', #325, 'mechanical' ) ;
#360 = UNCERTAINTY_MEASURE_WITH_UNIT (LENGTH_MEASURE( 1.000000000000000100E-005 ), #224, 'distance_accuracy_value', 'NONE');
#361 = CARTESIAN_POINT ( 'NONE',  ( 0.0000000000000000000, 0.0000000000000000000, 1.035076736189410900 ) ) ;
#362 = APPROVAL_ROLE ( '' ) ;
#363 = ORIENTED_EDGE ( 'NONE', *, *, #50, .T. ) ;
#364 = LOCAL_TIME ( 16, 45, 47.00000000000000000, #199 ) ;
#365 = LINE ( 'NONE', #305, #249 ) ;
#366 = ORIENTED_EDGE ( 'NONE', *, *, #281, .T. ) ;
#367 = PERSON_AND_ORGANIZATION_ROLE ( 'creator' ) ;
ENDSEC;
END-ISO-10303-21;
