ISO-10303-21;
HEADER;
FILE_DESCRIPTION (( 'STEP AP214' ),
    '1' );
FILE_NAME ('19075-E0W.STEP',
    '2009-12-21T16:59:07',
    ( ' ' ),
    ( ' ' ),
    'SwSTEP 2.0',
    'SolidWorks 2009',
    '' );
FILE_SCHEMA (( 'AUTOMOTIVE_DESIGN' ));
ENDSEC;

DATA;
#1 = DIRECTION ( 'NONE',  ( -0.0000000000000000000, -0.0000000000000000000, 1.000000000000000000 ) ) ;
#2 = VECTOR ( 'NONE', #1, 1000.000000000000000 ) ;
#3 = CARTESIAN_POINT ( 'NONE',  ( -12.50000000000000000, 1.530757942277971600E-015, 7.394797725077859600 ) ) ;
#4 = LINE ( 'NONE', #3, #2 ) ;
#5 = DIRECTION ( 'NONE',  ( -0.0000000000000000000, -0.0000000000000000000, 1.000000000000000000 ) ) ;
#6 = CIRCLE ( 'NONE', #8, 12.50000000000000000 ) ;
#7 = CARTESIAN_POINT ( 'NONE',  ( 0.0000000000000000000, 0.0000000000000000000, -3.372355545351465100 ) ) ;
#8 = AXIS2_PLACEMENT_3D ( 'NONE', #7, #5, #13 ) ;
#9 =( NAMED_UNIT ( * ) SI_UNIT ( $, .STERADIAN. ) SOLID_ANGLE_UNIT ( ) );
#10 =( LENGTH_UNIT ( ) NAMED_UNIT ( * ) SI_UNIT ( .MILLI., .METRE. ) );
#11 =( NAMED_UNIT ( * ) PLANE_ANGLE_UNIT ( ) SI_UNIT ( $, .RADIAN. ) );
#12 = UNCERTAINTY_MEASURE_WITH_UNIT (LENGTH_MEASURE( 1.000000000000000100E-005 ), #10, 'distance_accuracy_value', 'NONE');
#13 = DIRECTION ( 'NONE',  ( 1.000000000000000000, 0.0000000000000000000, 0.0000000000000000000 ) ) ;
#14 =( GEOMETRIC_REPRESENTATION_CONTEXT ( 3 ) GLOBAL_UNCERTAINTY_ASSIGNED_CONTEXT ( ( #12 ) ) GLOBAL_UNIT_ASSIGNED_CONTEXT ( ( #10, #11, #9 ) ) REPRESENTATION_CONTEXT ( 'NONE', 'WORKASPACE' ) );
#15 = ADVANCED_BREP_SHAPE_REPRESENTATION ( '19075-E0W', ( #193, #36 ), #14 ) ;
#16 = CARTESIAN_POINT ( 'NONE',  ( -12.50000000000000000, 1.530757942277971600E-015, -3.372355545351465100 ) ) ;
#17 = CARTESIAN_POINT ( 'NONE',  ( 12.50000000000000000, 0.0000000000000000000, -3.372355545351465100 ) ) ;
#18 = FILL_AREA_STYLE ('',( #19 ) ) ;
#19 = FILL_AREA_STYLE_COLOUR ( '', #20 ) ;
#20 = COLOUR_RGB ( '',0.7960784313725489700, 0.8235294117647058400, 0.9372549019607843100 ) ;
#21 = SURFACE_SIDE_STYLE ('',( #26 ) ) ;
#22 = SURFACE_STYLE_USAGE ( .BOTH. , #21 ) ;
#23 = PRESENTATION_STYLE_ASSIGNMENT (( #22 ) ) ;
#24 = PRESENTATION_LAYER_ASSIGNMENT (  '', '', ( #25 ) ) ;
#25 = STYLED_ITEM ( 'NONE', ( #23 ), #15 ) ;
#26 = SURFACE_STYLE_FILL_AREA ( #18 ) ;
#27 = MECHANICAL_DESIGN_GEOMETRIC_PRESENTATION_REPRESENTATION (  '', ( #25 ), #32 ) ;
#28 =( LENGTH_UNIT ( ) NAMED_UNIT ( * ) SI_UNIT ( .MILLI., .METRE. ) );
#29 =( NAMED_UNIT ( * ) SI_UNIT ( $, .STERADIAN. ) SOLID_ANGLE_UNIT ( ) );
#30 =( NAMED_UNIT ( * ) PLANE_ANGLE_UNIT ( ) SI_UNIT ( $, .RADIAN. ) );
#31 = UNCERTAINTY_MEASURE_WITH_UNIT (LENGTH_MEASURE( 1.000000000000000100E-005 ), #28, 'distance_accuracy_value', 'NONE');
#32 =( GEOMETRIC_REPRESENTATION_CONTEXT ( 3 ) GLOBAL_UNCERTAINTY_ASSIGNED_CONTEXT ( ( #31 ) ) GLOBAL_UNIT_ASSIGNED_CONTEXT ( ( #28, #30, #29 ) ) REPRESENTATION_CONTEXT ( 'NONE', 'WORKASPACE' ) );
#33 = CARTESIAN_POINT ( 'NONE',  ( 0.0000000000000000000, 0.0000000000000000000, 0.0000000000000000000 ) ) ;
#34 = DIRECTION ( 'NONE',  ( 1.000000000000000000, 0.0000000000000000000, 0.0000000000000000000 ) ) ;
#35 = DIRECTION ( 'NONE',  ( 0.0000000000000000000, 0.0000000000000000000, 1.000000000000000000 ) ) ;
#36 = AXIS2_PLACEMENT_3D ( 'NONE', #33, #35, #34 ) ;
#37 = PRODUCT_DEFINITION_CONTEXT ( 'detailed design', #48, 'design' ) ;
#38 = SHAPE_DEFINITION_REPRESENTATION ( #45, #15 ) ;
#39 = APPLICATION_CONTEXT ( 'automotive_design' ) ;
#40 = PRODUCT ( '19075-E0W', '19075-E0W', '', ( #44 ) ) ;
#41 = APPLICATION_PROTOCOL_DEFINITION ( 'draft international standard', 'automotive_design', 1998, #39 ) ;
#42 = PRODUCT_DEFINITION_FORMATION_WITH_SPECIFIED_SOURCE ( 'ANY', '', #40, .NOT_KNOWN. ) ;
#43 = PRODUCT_DEFINITION ( 'UNKNOWN', '', #42, #37 ) ;
#44 = PRODUCT_CONTEXT ( 'NONE', #39, 'mechanical' ) ;
#45 = PRODUCT_DEFINITION_SHAPE ( 'NONE', 'NONE',  #43 ) ;
#46 = PRODUCT_RELATED_PRODUCT_CATEGORY ( 'part', '', ( #40 ) ) ;
#47 = APPLICATION_PROTOCOL_DEFINITION ( 'draft international standard', 'automotive_design', 1998, #48 ) ;
#48 = APPLICATION_CONTEXT ( 'automotive_design' ) ;
#49 =( NAMED_UNIT ( * ) PLANE_ANGLE_UNIT ( ) SI_UNIT ( $, .RADIAN. ) );
#50 = SURFACE_STYLE_USAGE ( .BOTH. , #54 ) ;
#51 =( NAMED_UNIT ( * ) SI_UNIT ( $, .STERADIAN. ) SOLID_ANGLE_UNIT ( ) );
#52 = PRESENTATION_LAYER_ASSIGNMENT (  '', '', ( #60 ) ) ;
#53 =( GEOMETRIC_REPRESENTATION_CONTEXT ( 3 ) GLOBAL_UNCERTAINTY_ASSIGNED_CONTEXT ( ( #57 ) ) GLOBAL_UNIT_ASSIGNED_CONTEXT ( ( #56, #49, #51 ) ) REPRESENTATION_CONTEXT ( 'NONE', 'WORKASPACE' ) );
#54 = SURFACE_SIDE_STYLE ('',( #220 ) ) ;
#55 = MECHANICAL_DESIGN_GEOMETRIC_PRESENTATION_REPRESENTATION (  '', ( #60 ), #53 ) ;
#56 =( LENGTH_UNIT ( ) NAMED_UNIT ( * ) SI_UNIT ( .MILLI., .METRE. ) );
#57 = UNCERTAINTY_MEASURE_WITH_UNIT (LENGTH_MEASURE( 1.000000000000000100E-005 ), #56, 'distance_accuracy_value', 'NONE');
#58 =( LENGTH_UNIT ( ) NAMED_UNIT ( * ) SI_UNIT ( .MILLI., .METRE. ) );
#59 = PRESENTATION_STYLE_ASSIGNMENT (( #50 ) ) ;
#60 = STYLED_ITEM ( 'NONE', ( #59 ), #182 ) ;
#61 =( NAMED_UNIT ( * ) PLANE_ANGLE_UNIT ( ) SI_UNIT ( $, .RADIAN. ) );
#62 = UNCERTAINTY_MEASURE_WITH_UNIT (LENGTH_MEASURE( 1.000000000000000100E-005 ), #58, 'distance_accuracy_value', 'NONE');
#63 = AXIS2_PLACEMENT_3D ( 'NONE', #68, #64, #66 ) ;
#64 = DIRECTION ( 'NONE',  ( -0.0000000000000000000, -0.0000000000000000000, 1.000000000000000000 ) ) ;
#65 =( NAMED_UNIT ( * ) SI_UNIT ( $, .STERADIAN. ) SOLID_ANGLE_UNIT ( ) );
#66 = DIRECTION ( 'NONE',  ( 1.000000000000000000, 0.0000000000000000000, 0.0000000000000000000 ) ) ;
#67 = CYLINDRICAL_SURFACE ( 'NONE', #63, 12.50000000000000000 ) ;
#68 = CARTESIAN_POINT ( 'NONE',  ( 0.0000000000000000000, 0.0000000000000000000, 7.394797725077859600 ) ) ;
#69 =( NAMED_UNIT ( * ) SI_UNIT ( $, .STERADIAN. ) SOLID_ANGLE_UNIT ( ) );
#70 = DIRECTION ( 'NONE',  ( -0.0000000000000000000, -0.0000000000000000000, 1.000000000000000000 ) ) ;
#71 = CARTESIAN_POINT ( 'NONE',  ( 12.50000000000000000, 0.0000000000000000000, 7.394797725077859600 ) ) ;
#72 = DIRECTION ( 'NONE',  ( -1.000000000000000000, 0.0000000000000000000, 0.0000000000000000000 ) ) ;
#73 =( NAMED_UNIT ( * ) SI_UNIT ( $, .STERADIAN. ) SOLID_ANGLE_UNIT ( ) );
#74 = LINE ( 'NONE', #71, #83 ) ;
#75 = PLANE ( 'NONE',  #87 ) ;
#76 =( GEOMETRIC_REPRESENTATION_CONTEXT ( 3 ) GLOBAL_UNCERTAINTY_ASSIGNED_CONTEXT ( ( #84 ) ) GLOBAL_UNIT_ASSIGNED_CONTEXT ( ( #251, #79, #69 ) ) REPRESENTATION_CONTEXT ( 'NONE', 'WORKASPACE' ) );
#77 = SPHERICAL_SURFACE ( 'NONE', #86, 25.69999999999999900 ) ;
#78 = UNCERTAINTY_MEASURE_WITH_UNIT (LENGTH_MEASURE( 1.000000000000000100E-005 ), #245, 'distance_accuracy_value', 'NONE');
#79 =( NAMED_UNIT ( * ) PLANE_ANGLE_UNIT ( ) SI_UNIT ( $, .RADIAN. ) );
#80 =( GEOMETRIC_REPRESENTATION_CONTEXT ( 3 ) GLOBAL_UNCERTAINTY_ASSIGNED_CONTEXT ( ( #78 ) ) GLOBAL_UNIT_ASSIGNED_CONTEXT ( ( #245, #244, #73 ) ) REPRESENTATION_CONTEXT ( 'NONE', 'WORKASPACE' ) );
#81 = CARTESIAN_POINT ( 'NONE',  ( 0.0000000000000000000, 0.0000000000000000000, 25.82764445464853900 ) ) ;
#82 = DIRECTION ( 'NONE',  ( 0.0000000000000000000, 1.000000000000000000, 0.0000000000000000000 ) ) ;
#83 = VECTOR ( 'NONE', #70, 1000.000000000000000 ) ;
#84 = UNCERTAINTY_MEASURE_WITH_UNIT (LENGTH_MEASURE( 1.000000000000000100E-005 ), #251, 'distance_accuracy_value', 'NONE');
#85 =( GEOMETRIC_REPRESENTATION_CONTEXT ( 3 ) GLOBAL_UNCERTAINTY_ASSIGNED_CONTEXT ( ( #62 ) ) GLOBAL_UNIT_ASSIGNED_CONTEXT ( ( #58, #61, #65 ) ) REPRESENTATION_CONTEXT ( 'NONE', 'WORKASPACE' ) );
#86 = AXIS2_PLACEMENT_3D ( 'NONE', #81, #72, #82 ) ;
#87 = AXIS2_PLACEMENT_3D ( 'NONE', #90, #89, #88 ) ;
#88 = DIRECTION ( 'NONE',  ( 1.000000000000000000, 0.0000000000000000000, 0.0000000000000000000 ) ) ;
#89 = DIRECTION ( 'NONE',  ( 0.0000000000000000000, -0.0000000000000000000, 1.000000000000000000 ) ) ;
#90 = CARTESIAN_POINT ( 'NONE',  ( 0.0000000000000000000, 6.429395695523603200E-016, -3.372355545351465100 ) ) ;
#91 = EDGE_LOOP ( 'NONE', ( #122, #202, #94, #156 ) ) ;
#92 = ORIENTED_EDGE ( 'NONE', *, *, #93, .F. ) ;
#93 = EDGE_CURVE ( 'NONE', #121, #118, #102, .T. ) ;
#94 = ORIENTED_EDGE ( 'NONE', *, *, #95, .T. ) ;
#95 = EDGE_CURVE ( 'NONE', #120, #121, #140, .T. ) ;
#96 = ADVANCED_FACE ( 'NONE', ( #141 ), #209, .F. ) ;
#97 = EDGE_LOOP ( 'NONE', ( #98, #190, #191, #192 ) ) ;
#98 = ORIENTED_EDGE ( 'NONE', *, *, #119, .F. ) ;
#99 = DIRECTION ( 'NONE',  ( -0.0000000000000000000, -0.0000000000000000000, 1.000000000000000000 ) ) ;
#100 = CARTESIAN_POINT ( 'NONE',  ( 0.0000000000000000000, 0.0000000000000000000, 3.372355545351465100 ) ) ;
#101 = AXIS2_PLACEMENT_3D ( 'NONE', #100, #99, #142 ) ;
#102 = CIRCLE ( 'NONE', #101, 12.50000000000000000 ) ;
#103 = CARTESIAN_POINT ( 'NONE',  ( 0.0000000000000000000, 0.0000000000000000000, 3.372355545351465100 ) ) ;
#104 = EDGE_CURVE ( 'NONE', #118, #181, #175, .T. ) ;
#105 =( LENGTH_UNIT ( ) NAMED_UNIT ( * ) SI_UNIT ( .MILLI., .METRE. ) );
#106 = MECHANICAL_DESIGN_GEOMETRIC_PRESENTATION_REPRESENTATION (  '', ( #184 ), #210 ) ;
#107 = PRESENTATION_LAYER_ASSIGNMENT (  '', '', ( #184 ) ) ;
#108 = DIRECTION ( 'NONE',  ( 1.000000000000000000, 0.0000000000000000000, 0.0000000000000000000 ) ) ;
#109 = CARTESIAN_POINT ( 'NONE',  ( 0.0000000000000000000, 0.0000000000000000000, 25.82764445464853900 ) ) ;
#110 = AXIS2_PLACEMENT_3D ( 'NONE', #109, #108, #139 ) ;
#111 = CIRCLE ( 'NONE', #110, 25.69999999999999900 ) ;
#112 = CARTESIAN_POINT ( 'NONE',  ( 12.50000000000000000, 0.0000000000000000000, 3.372355545351465100 ) ) ;
#113 = EDGE_LOOP ( 'NONE', ( #146, #157, #117, #92, #194 ) ) ;
#114 = DIRECTION ( 'NONE',  ( 0.0000000000000000000, 1.000000000000000000, 0.0000000000000000000 ) ) ;
#115 = DIRECTION ( 'NONE',  ( -1.000000000000000000, 0.0000000000000000000, 0.0000000000000000000 ) ) ;
#116 = AXIS2_PLACEMENT_3D ( 'NONE', #208, #115, #114 ) ;
#117 = ORIENTED_EDGE ( 'NONE', *, *, #104, .F. ) ;
#118 = VERTEX_POINT ( 'NONE', #170 ) ;
#119 = EDGE_CURVE ( 'NONE', #124, #120, #154, .T. ) ;
#120 = VERTEX_POINT ( 'NONE', #155 ) ;
#121 = VERTEX_POINT ( 'NONE', #112 ) ;
#122 = ORIENTED_EDGE ( 'NONE', *, *, #123, .F. ) ;
#123 = EDGE_CURVE ( 'NONE', #124, #118, #111, .T. ) ;
#124 = VERTEX_POINT ( 'NONE', #138 ) ;
#125 = ORIENTED_EDGE ( 'NONE', *, *, #168, .F. ) ;
#126 = ORIENTED_EDGE ( 'NONE', *, *, #198, .F. ) ;
#127 = ORIENTED_EDGE ( 'NONE', *, *, #195, .T. ) ;
#128 = PRESENTATION_LAYER_ASSIGNMENT (  '', '', ( #129 ) ) ;
#129 = STYLED_ITEM ( 'NONE', ( #130 ), #143 ) ;
#130 = PRESENTATION_STYLE_ASSIGNMENT (( #131 ) ) ;
#131 = SURFACE_STYLE_USAGE ( .BOTH. , #132 ) ;
#132 = SURFACE_SIDE_STYLE ('',( #133 ) ) ;
#133 = SURFACE_STYLE_FILL_AREA ( #134 ) ;
#134 = FILL_AREA_STYLE ('',( #135 ) ) ;
#135 = FILL_AREA_STYLE_COLOUR ( '', #136 ) ;
#136 = COLOUR_RGB ( '',0.9568627450980391500, 0.9490196078431372100, 0.9607843137254902200 ) ;
#137 = FACE_OUTER_BOUND ( 'NONE', #145, .T. ) ;
#138 = CARTESIAN_POINT ( 'NONE',  ( 0.0000000000000000000, 1.573619164661754900E-015, 0.1276444546485372400 ) ) ;
#139 = DIRECTION ( 'NONE',  ( 0.0000000000000000000, 0.0000000000000000000, -1.000000000000000000 ) ) ;
#140 = CIRCLE ( 'NONE', #207, 12.50000000000000000 ) ;
#141 = FACE_OUTER_BOUND ( 'NONE', #97, .T. ) ;
#142 = DIRECTION ( 'NONE',  ( 1.000000000000000000, 0.0000000000000000000, 0.0000000000000000000 ) ) ;
#143 = ADVANCED_FACE ( 'NONE', ( #137 ), #162, .T. ) ;
#144 = ORIENTED_EDGE ( 'NONE', *, *, #95, .F. ) ;
#145 = EDGE_LOOP ( 'NONE', ( #126, #169, #127, #144, #167 ) ) ;
#146 = ORIENTED_EDGE ( 'NONE', *, *, #199, .T. ) ;
#147 = EDGE_LOOP ( 'NONE', ( #179, #125 ) ) ;
#148 =( NAMED_UNIT ( * ) SI_UNIT ( $, .STERADIAN. ) SOLID_ANGLE_UNIT ( ) );
#149 =( NAMED_UNIT ( * ) PLANE_ANGLE_UNIT ( ) SI_UNIT ( $, .RADIAN. ) );
#150 = DIRECTION ( 'NONE',  ( -1.224606353822377300E-016, -1.000000000000000000, 0.0000000000000000000 ) ) ;
#151 = DIRECTION ( 'NONE',  ( -1.000000000000000000, 1.224606353822377300E-016, 0.0000000000000000000 ) ) ;
#152 = CARTESIAN_POINT ( 'NONE',  ( 0.0000000000000000000, 0.0000000000000000000, 25.82764445464853900 ) ) ;
#153 = AXIS2_PLACEMENT_3D ( 'NONE', #152, #151, #150 ) ;
#154 = CIRCLE ( 'NONE', #153, 25.69999999999999900 ) ;
#155 = CARTESIAN_POINT ( 'NONE',  ( -1.530757942277971400E-015, -12.49999999999999800, 3.372355545351465500 ) ) ;
#156 = ORIENTED_EDGE ( 'NONE', *, *, #93, .T. ) ;
#157 = ORIENTED_EDGE ( 'NONE', *, *, #198, .T. ) ;
#158 = DIRECTION ( 'NONE',  ( 1.000000000000000000, 0.0000000000000000000, 0.0000000000000000000 ) ) ;
#159 = DIRECTION ( 'NONE',  ( -0.0000000000000000000, -0.0000000000000000000, 1.000000000000000000 ) ) ;
#160 = CARTESIAN_POINT ( 'NONE',  ( 0.0000000000000000000, 0.0000000000000000000, 7.394797725077859600 ) ) ;
#161 = AXIS2_PLACEMENT_3D ( 'NONE', #160, #159, #158 ) ;
#162 = CYLINDRICAL_SURFACE ( 'NONE', #161, 12.50000000000000000 ) ;
#163 =( GEOMETRIC_REPRESENTATION_CONTEXT ( 3 ) GLOBAL_UNCERTAINTY_ASSIGNED_CONTEXT ( ( #164 ) ) GLOBAL_UNIT_ASSIGNED_CONTEXT ( ( #177, #176, #165 ) ) REPRESENTATION_CONTEXT ( 'NONE', 'WORKASPACE' ) );
#164 = UNCERTAINTY_MEASURE_WITH_UNIT (LENGTH_MEASURE( 1.000000000000000100E-005 ), #177, 'distance_accuracy_value', 'NONE');
#165 =( NAMED_UNIT ( * ) SI_UNIT ( $, .STERADIAN. ) SOLID_ANGLE_UNIT ( ) );
#166 = CLOSED_SHELL ( 'NONE', ( #182, #183, #96, #197, #143 ) ) ;
#167 = ORIENTED_EDGE ( 'NONE', *, *, #180, .F. ) ;
#168 = EDGE_CURVE ( 'NONE', #201, #200, #218, .T. ) ;
#169 = ORIENTED_EDGE ( 'NONE', *, *, #168, .T. ) ;
#170 = CARTESIAN_POINT ( 'NONE',  ( 0.0000000000000000000, 12.49999999999999800, 3.372355545351465500 ) ) ;
#171 = DIRECTION ( 'NONE',  ( 1.000000000000000000, 0.0000000000000000000, 0.0000000000000000000 ) ) ;
#172 = DIRECTION ( 'NONE',  ( -0.0000000000000000000, -0.0000000000000000000, 1.000000000000000000 ) ) ;
#173 = CARTESIAN_POINT ( 'NONE',  ( 0.0000000000000000000, 0.0000000000000000000, 3.372355545351465100 ) ) ;
#174 = AXIS2_PLACEMENT_3D ( 'NONE', #173, #172, #171 ) ;
#175 = CIRCLE ( 'NONE', #174, 12.50000000000000000 ) ;
#176 =( NAMED_UNIT ( * ) PLANE_ANGLE_UNIT ( ) SI_UNIT ( $, .RADIAN. ) );
#177 =( LENGTH_UNIT ( ) NAMED_UNIT ( * ) SI_UNIT ( .MILLI., .METRE. ) );
#178 = MECHANICAL_DESIGN_GEOMETRIC_PRESENTATION_REPRESENTATION (  '', ( #129 ), #163 ) ;
#179 = ORIENTED_EDGE ( 'NONE', *, *, #199, .F. ) ;
#180 = EDGE_CURVE ( 'NONE', #181, #120, #217, .T. ) ;
#181 = VERTEX_POINT ( 'NONE', #225 ) ;
#182 = ADVANCED_FACE ( 'NONE', ( #224 ), #67, .T. ) ;
#183 = ADVANCED_FACE ( 'NONE', ( #233 ), #77, .F. ) ;
#184 = STYLED_ITEM ( 'NONE', ( #185 ), #96 ) ;
#185 = PRESENTATION_STYLE_ASSIGNMENT (( #186 ) ) ;
#186 = SURFACE_STYLE_USAGE ( .BOTH. , #187 ) ;
#187 = SURFACE_SIDE_STYLE ('',( #188 ) ) ;
#188 = SURFACE_STYLE_FILL_AREA ( #189 ) ;
#189 = FILL_AREA_STYLE ('',( #203 ) ) ;
#190 = ORIENTED_EDGE ( 'NONE', *, *, #123, .T. ) ;
#191 = ORIENTED_EDGE ( 'NONE', *, *, #104, .T. ) ;
#192 = ORIENTED_EDGE ( 'NONE', *, *, #180, .T. ) ;
#193 = MANIFOLD_SOLID_BREP ( 'NONE', #166 ) ;
#194 = ORIENTED_EDGE ( 'NONE', *, *, #195, .F. ) ;
#195 = EDGE_CURVE ( 'NONE', #200, #121, #74, .T. ) ;
#196 = UNCERTAINTY_MEASURE_WITH_UNIT (LENGTH_MEASURE( 1.000000000000000100E-005 ), #105, 'distance_accuracy_value', 'NONE');
#197 = ADVANCED_FACE ( 'NONE', ( #250 ), #75, .F. ) ;
#198 = EDGE_CURVE ( 'NONE', #201, #181, #4, .T. ) ;
#199 = EDGE_CURVE ( 'NONE', #200, #201, #6, .T. ) ;
#200 = VERTEX_POINT ( 'NONE', #17 ) ;
#201 = VERTEX_POINT ( 'NONE', #16 ) ;
#202 = ORIENTED_EDGE ( 'NONE', *, *, #119, .T. ) ;
#203 = FILL_AREA_STYLE_COLOUR ( '', #204 ) ;
#204 = COLOUR_RGB ( '',0.9568627450980391500, 0.9490196078431372100, 0.9607843137254902200 ) ;
#205 = DIRECTION ( 'NONE',  ( 1.000000000000000000, 0.0000000000000000000, 0.0000000000000000000 ) ) ;
#206 = DIRECTION ( 'NONE',  ( -0.0000000000000000000, -0.0000000000000000000, 1.000000000000000000 ) ) ;
#207 = AXIS2_PLACEMENT_3D ( 'NONE', #103, #206, #205 ) ;
#208 = CARTESIAN_POINT ( 'NONE',  ( 0.0000000000000000000, 0.0000000000000000000, 25.82764445464853900 ) ) ;
#209 = SPHERICAL_SURFACE ( 'NONE', #116, 25.69999999999999900 ) ;
#210 =( GEOMETRIC_REPRESENTATION_CONTEXT ( 3 ) GLOBAL_UNCERTAINTY_ASSIGNED_CONTEXT ( ( #196 ) ) GLOBAL_UNIT_ASSIGNED_CONTEXT ( ( #105, #149, #148 ) ) REPRESENTATION_CONTEXT ( 'NONE', 'WORKASPACE' ) );
#211 = DIRECTION ( 'NONE',  ( 1.000000000000000000, 0.0000000000000000000, 0.0000000000000000000 ) ) ;
#212 = DIRECTION ( 'NONE',  ( -0.0000000000000000000, -0.0000000000000000000, 1.000000000000000000 ) ) ;
#213 = CARTESIAN_POINT ( 'NONE',  ( 0.0000000000000000000, 0.0000000000000000000, -3.372355545351465100 ) ) ;
#214 = AXIS2_PLACEMENT_3D ( 'NONE', #213, #212, #211 ) ;
#215 = DIRECTION ( 'NONE',  ( -0.0000000000000000000, -0.0000000000000000000, 1.000000000000000000 ) ) ;
#216 = AXIS2_PLACEMENT_3D ( 'NONE', #219, #215, #226 ) ;
#217 = CIRCLE ( 'NONE', #216, 12.50000000000000000 ) ;
#218 = CIRCLE ( 'NONE', #214, 12.50000000000000000 ) ;
#219 = CARTESIAN_POINT ( 'NONE',  ( 0.0000000000000000000, 0.0000000000000000000, 3.372355545351465100 ) ) ;
#220 = SURFACE_STYLE_FILL_AREA ( #221 ) ;
#221 = FILL_AREA_STYLE ('',( #222 ) ) ;
#222 = FILL_AREA_STYLE_COLOUR ( '', #223 ) ;
#223 = COLOUR_RGB ( '',0.9568627450980391500, 0.9490196078431372100, 0.9607843137254902200 ) ;
#224 = FACE_OUTER_BOUND ( 'NONE', #113, .T. ) ;
#225 = CARTESIAN_POINT ( 'NONE',  ( -12.50000000000000000, 1.530757942277971600E-015, 3.372355545351465100 ) ) ;
#226 = DIRECTION ( 'NONE',  ( 1.000000000000000000, 0.0000000000000000000, 0.0000000000000000000 ) ) ;
#227 = MECHANICAL_DESIGN_GEOMETRIC_PRESENTATION_REPRESENTATION (  '', ( #229 ), #85 ) ;
#228 = PRESENTATION_LAYER_ASSIGNMENT (  '', '', ( #229 ) ) ;
#229 = STYLED_ITEM ( 'NONE', ( #230 ), #183 ) ;
#230 = PRESENTATION_STYLE_ASSIGNMENT (( #231 ) ) ;
#231 = SURFACE_STYLE_USAGE ( .BOTH. , #232 ) ;
#232 = SURFACE_SIDE_STYLE ('',( #234 ) ) ;
#233 = FACE_OUTER_BOUND ( 'NONE', #91, .T. ) ;
#234 = SURFACE_STYLE_FILL_AREA ( #235 ) ;
#235 = FILL_AREA_STYLE ('',( #236 ) ) ;
#236 = FILL_AREA_STYLE_COLOUR ( '', #237 ) ;
#237 = COLOUR_RGB ( '',0.9568627450980391500, 0.9490196078431372100, 0.9607843137254902200 ) ;
#238 = SURFACE_STYLE_USAGE ( .BOTH. , #239 ) ;
#239 = SURFACE_SIDE_STYLE ('',( #240 ) ) ;
#240 = SURFACE_STYLE_FILL_AREA ( #241 ) ;
#241 = FILL_AREA_STYLE ('',( #242 ) ) ;
#242 = FILL_AREA_STYLE_COLOUR ( '', #243 ) ;
#243 = COLOUR_RGB ( '',0.7960784313725489700, 0.8235294117647058400, 0.9372549019607843100 ) ;
#244 =( NAMED_UNIT ( * ) PLANE_ANGLE_UNIT ( ) SI_UNIT ( $, .RADIAN. ) );
#245 =( LENGTH_UNIT ( ) NAMED_UNIT ( * ) SI_UNIT ( .MILLI., .METRE. ) );
#246 = MECHANICAL_DESIGN_GEOMETRIC_PRESENTATION_REPRESENTATION (  '', ( #248 ), #80 ) ;
#247 = PRESENTATION_LAYER_ASSIGNMENT (  '', '', ( #248 ) ) ;
#248 = STYLED_ITEM ( 'NONE', ( #249 ), #193 ) ;
#249 = PRESENTATION_STYLE_ASSIGNMENT (( #238 ) ) ;
#250 = FACE_OUTER_BOUND ( 'NONE', #147, .T. ) ;
#251 =( LENGTH_UNIT ( ) NAMED_UNIT ( * ) SI_UNIT ( .MILLI., .METRE. ) );
#252 = MECHANICAL_DESIGN_GEOMETRIC_PRESENTATION_REPRESENTATION (  '', ( #254 ), #76 ) ;
#253 = PRESENTATION_LAYER_ASSIGNMENT (  '', '', ( #254 ) ) ;
#254 = STYLED_ITEM ( 'NONE', ( #255 ), #197 ) ;
#255 = PRESENTATION_STYLE_ASSIGNMENT (( #256 ) ) ;
#256 = SURFACE_STYLE_USAGE ( .BOTH. , #257 ) ;
#257 = SURFACE_SIDE_STYLE ('',( #258 ) ) ;
#258 = SURFACE_STYLE_FILL_AREA ( #259 ) ;
#259 = FILL_AREA_STYLE ('',( #260 ) ) ;
#260 = FILL_AREA_STYLE_COLOUR ( '', #261 ) ;
#261 = COLOUR_RGB ( '',0.9568627450980391500, 0.9490196078431372100, 0.9607843137254902200 ) ;
ENDSEC;
END-ISO-10303-21;
