ISO-10303-21;
HEADER;
FILE_DESCRIPTION (( 'STEP AP203' ),
    '1' );
FILE_NAME ('24986-E0W.STEP',
    '2015-04-28T20:37:33',
    ( 'Admin' ),
    ( '' ),
    'SwSTEP 2.0',
    'SolidWorks 2014',
    '' );
FILE_SCHEMA (( 'CONFIG_CONTROL_DESIGN' ));
ENDSEC;

DATA;
#1 = DIRECTION ( 'NONE',  ( -0.0000000000000000000, -0.0000000000000000000, 1.000000000000000000 ) ) ;
#2 = DIRECTION ( 'NONE',  ( -0.0000000000000000000, -0.0000000000000000000, 1.000000000000000000 ) ) ;
#3 = VERTEX_POINT ( 'NONE', #12 ) ;
#4 = AXIS2_PLACEMENT_3D ( 'NONE', #84, #2, #297 ) ;
#5 = AXIS2_PLACEMENT_3D ( 'NONE', #218, #1, #241 ) ;
#6 = DIRECTION ( 'NONE',  ( -0.0000000000000000000, -0.0000000000000000000, 1.000000000000000000 ) ) ;
#7 = CYLINDRICAL_SURFACE ( 'NONE', #123, 12.69999999999999900 ) ;
#8 = DIRECTION ( 'NONE',  ( 0.0000000000000000000, 0.0000000000000000000, 1.000000000000000000 ) ) ;
#9 = EDGE_LOOP ( 'NONE', ( #250, #48, #119 ) ) ;
#10 = CONICAL_SURFACE ( 'NONE', #81, 12.69999999999999900, 0.7853981633974300700 ) ;
#11 = LOCAL_TIME ( 16, 37, 33.00000000000000000, #203 ) ;
#12 = CARTESIAN_POINT ( 'NONE',  ( 0.0000000000000000000, 0.0000000000000000000, 2.209976377513124000 ) ) ;
#13 = CARTESIAN_POINT ( 'NONE',  ( 12.55857864376269700, 0.0000000000000000000, -0.1544346797930987200 ) ) ;
#14 = PERSON_AND_ORGANIZATION ( #25, #198 ) ;
#15 = EDGE_CURVE ( 'NONE', #193, #138, #269, .T. ) ;
#16 = ADVANCED_FACE ( 'NONE', ( #87 ), #33, .T. ) ;
#17 = PRODUCT_DEFINITION_FORMATION_WITH_SPECIFIED_SOURCE ( 'ANY', '', #129, .NOT_KNOWN. ) ;
#18 = ORIENTED_EDGE ( 'NONE', *, *, #15, .T. ) ;
#19 = ORIENTED_EDGE ( 'NONE', *, *, #293, .F. ) ;
#20 = EDGE_LOOP ( 'NONE', ( #137, #76, #289, #260 ) ) ;
#21 = CARTESIAN_POINT ( 'NONE',  ( 0.0000000000000000000, 0.0000000000000000000, -2.210023622486879900 ) ) ;
#22 = DATE_AND_TIME ( #187, #28 ) ;
#23 = DATE_AND_TIME ( #265, #226 ) ;
#24 = DIRECTION ( 'NONE',  ( 1.000000000000000000, 0.0000000000000000000, 0.0000000000000000000 ) ) ;
#25 = PERSON ( 'UNSPECIFIED', 'UNSPECIFIED', 'UNSPECIFIED', ('UNSPECIFIED'), ('UNSPECIFIED'), ('UNSPECIFIED') ) ;
#26 = CC_DESIGN_APPROVAL ( #102, ( #17 ) ) ;
#27 =( LENGTH_UNIT ( ) NAMED_UNIT ( * ) SI_UNIT ( .MILLI., .METRE. ) );
#28 = LOCAL_TIME ( 16, 37, 33.00000000000000000, #62 ) ;
#29 = DIRECTION ( 'NONE',  ( 1.000000000000000000, 0.0000000000000000000, 0.0000000000000000000 ) ) ;
#30 = DIRECTION ( 'NONE',  ( -0.0000000000000000000, -0.0000000000000000000, 1.000000000000000000 ) ) ;
#31 = EDGE_CURVE ( 'NONE', #286, #193, #296, .T. ) ;
#32 = SECURITY_CLASSIFICATION ( '', '', #197 ) ;
#33 = TOROIDAL_SURFACE ( 'NONE', #118, 0.004645728877362281800, 34.51000000000000500 ) ;
#34 = DIRECTION ( 'NONE',  ( 1.000000000000000000, 0.0000000000000000000, 0.0000000000000000000 ) ) ;
#35 = APPROVAL_PERSON_ORGANIZATION ( #291, #176, #239 ) ;
#36 = PERSON_AND_ORGANIZATION ( #25, #198 ) ;
#37 = AXIS2_PLACEMENT_3D ( 'NONE', #243, #8, #139 ) ;
#38 = CARTESIAN_POINT ( 'NONE',  ( 0.0000000000000000000, 0.0000000000000000000, -2.210023622486879900 ) ) ;
#39 = PERSON_AND_ORGANIZATION ( #25, #198 ) ;
#40 = PLANE ( 'NONE',  #152 ) ;
#41 = DESIGN_CONTEXT ( 'detailed design', #181, 'design' ) ;
#42 = CC_DESIGN_APPROVAL ( #131, ( #32 ) ) ;
#43 = VERTEX_POINT ( 'NONE', #103 ) ;
#44 = EDGE_LOOP ( 'NONE', ( #274, #132, #247, #201 ) ) ;
#45 = DIRECTION ( 'NONE',  ( 0.0000000000000000000, -1.000000000000000000, 0.0000000000000000000 ) ) ;
#46 = FACE_OUTER_BOUND ( 'NONE', #44, .T. ) ;
#47 = APPROVAL_ROLE ( '' ) ;
#48 = ORIENTED_EDGE ( 'NONE', *, *, #281, .T. ) ;
#49 = COORDINATED_UNIVERSAL_TIME_OFFSET ( 5, 0, .BEHIND. ) ;
#50 = CONICAL_SURFACE ( 'NONE', #5, 12.55857864376269000, 0.7853981633974360700 ) ;
#51 = CC_DESIGN_DATE_AND_TIME_ASSIGNMENT ( #80, #189, ( #130 ) ) ;
#52 = PRODUCT_DEFINITION_SHAPE ( 'NONE', 'NONE',  #130 ) ;
#53 = DIRECTION ( 'NONE',  ( 1.000000000000000000, 0.0000000000000000000, 0.0000000000000000000 ) ) ;
#54 = CARTESIAN_POINT ( 'NONE',  ( -12.69999999999999900, 1.555301434917138400E-015, 39.55482590683998700 ) ) ;
#55 = SHAPE_DEFINITION_REPRESENTATION ( #52, #124 ) ;
#56 = ADVANCED_FACE ( 'NONE', ( #75 ), #40, .F. ) ;
#57 = EDGE_CURVE ( 'NONE', #190, #170, #86, .T. ) ;
#58 = ORIENTED_EDGE ( 'NONE', *, *, #85, .F. ) ;
#59 = DIRECTION ( 'NONE',  ( 1.224646799147353200E-016, 1.000000000000000000, 0.0000000000000000000 ) ) ;
#60 = AXIS2_PLACEMENT_3D ( 'NONE', #21, #231, #277 ) ;
#61 = CARTESIAN_POINT ( 'NONE',  ( 0.0000000000000000000, 0.0000000000000000000, -0.2958560360304118800 ) ) ;
#62 = COORDINATED_UNIVERSAL_TIME_OFFSET ( 5, 0, .BEHIND. ) ;
#63 = CLOSED_SHELL ( 'NONE', ( #255, #107, #183, #16, #158, #56, #233, #272, #254 ) ) ;
#64 = DIRECTION ( 'NONE',  ( 0.0000000000000000000, 0.0000000000000000000, -1.000000000000000000 ) ) ;
#65 = APPROVAL_STATUS ( 'not_yet_approved' ) ;
#66 = CARTESIAN_POINT ( 'NONE',  ( 0.0000000000000000000, 0.0000000000000000000, -0.1544346797930987200 ) ) ;
#67 = VECTOR ( 'NONE', #164, 1000.000000000000000 ) ;
#68 = ORIENTED_EDGE ( 'NONE', *, *, #185, .T. ) ;
#69 = CARTESIAN_POINT ( 'NONE',  ( 0.0000000000000000000, 0.0000000000000000000, -32.30002330978335600 ) ) ;
#70 = PERSON_AND_ORGANIZATION_ROLE ( 'creator' ) ;
#71 = FACE_OUTER_BOUND ( 'NONE', #145, .T. ) ;
#72 = CARTESIAN_POINT ( 'NONE',  ( 0.0000000000000000000, 0.0000000000000000000, -32.30002330978335600 ) ) ;
#73 = DIRECTION ( 'NONE',  ( 0.0000000000000000000, 0.0000000000000000000, -1.000000000000000000 ) ) ;
#74 = DIRECTION ( 'NONE',  ( -0.7071067811865388000, 8.659560562354826900E-017, 0.7071067811865561200 ) ) ;
#75 = FACE_OUTER_BOUND ( 'NONE', #109, .T. ) ;
#76 = ORIENTED_EDGE ( 'NONE', *, *, #31, .F. ) ;
#77 = CC_DESIGN_PERSON_AND_ORGANIZATION_ASSIGNMENT ( #36, #298, ( #129 ) ) ;
#78 = CC_DESIGN_DATE_AND_TIME_ASSIGNMENT ( #22, #262, ( #32 ) ) ;
#79 = CARTESIAN_POINT ( 'NONE',  ( 12.55857864376269000, 0.0000000000000000000, -2.210023622486879900 ) ) ;
#80 = DATE_AND_TIME ( #295, #11 ) ;
#81 = AXIS2_PLACEMENT_3D ( 'NONE', #89, #64, #112 ) ;
#82 = DIRECTION ( 'NONE',  ( 0.0000000000000000000, -0.0000000000000000000, 1.000000000000000000 ) ) ;
#83 = PERSON_AND_ORGANIZATION_ROLE ( 'design_supplier' ) ;
#84 = CARTESIAN_POINT ( 'NONE',  ( 0.0000000000000000000, 0.0000000000000000000, -2.068602266249566700 ) ) ;
#85 = EDGE_CURVE ( 'NONE', #193, #286, #234, .T. ) ;
#86 = CIRCLE ( 'NONE', #215, 12.69999999999999900 ) ;
#87 = FACE_OUTER_BOUND ( 'NONE', #9, .T. ) ;
#88 = DIRECTION ( 'NONE',  ( 1.000000000000000000, 0.0000000000000000000, 0.0000000000000000000 ) ) ;
#89 = CARTESIAN_POINT ( 'NONE',  ( 0.0000000000000000000, 0.0000000000000000000, -0.2958560360304118800 ) ) ;
#90 = DIRECTION ( 'NONE',  ( -0.0000000000000000000, -0.0000000000000000000, 1.000000000000000000 ) ) ;
#91 = VECTOR ( 'NONE', #115, 1000.000000000000000 ) ;
#92 = CC_DESIGN_APPROVAL ( #176, ( #130 ) ) ;
#93 = APPLICATION_PROTOCOL_DEFINITION ( 'international standard', 'config_control_design', 1994, #121 ) ;
#94 =( NAMED_UNIT ( * ) PLANE_ANGLE_UNIT ( ) SI_UNIT ( $, .RADIAN. ) );
#95 = DIRECTION ( 'NONE',  ( 1.000000000000000000, 0.0000000000000000000, 0.0000000000000000000 ) ) ;
#96 = PERSON_AND_ORGANIZATION ( #25, #198 ) ;
#97 = AXIS2_PLACEMENT_3D ( 'NONE', #38, #292, #144 ) ;
#98 = AXIS2_PLACEMENT_3D ( 'NONE', #69, #290, #282 ) ;
#99 = CARTESIAN_POINT ( 'NONE',  ( 12.69999999999999900, 0.0000000000000000000, 39.55482590683998700 ) ) ;
#100 = APPROVAL_PERSON_ORGANIZATION ( #224, #131, #271 ) ;
#101 = CIRCLE ( 'NONE', #97, 12.55857864376269000 ) ;
#102 = APPROVAL ( #65, 'UNSPECIFIED' ) ;
#103 = CARTESIAN_POINT ( 'NONE',  ( -12.69999999999999900, 1.555301434917138400E-015, -0.2958560360304118800 ) ) ;
#104 = PERSON_AND_ORGANIZATION_ROLE ( 'classification_officer' ) ;
#105 = EDGE_CURVE ( 'NONE', #138, #43, #186, .T. ) ;
#106 = CARTESIAN_POINT ( 'NONE',  ( -0.004645728877362281800, 5.689376999368144400E-019, -32.30002330978335600 ) ) ;
#107 = ADVANCED_FACE ( 'NONE', ( #46 ), #7, .T. ) ;
#108 = COORDINATED_UNIVERSAL_TIME_OFFSET ( 5, 0, .BEHIND. ) ;
#109 = EDGE_LOOP ( 'NONE', ( #188, #179 ) ) ;
#110 = APPROVAL_PERSON_ORGANIZATION ( #253, #102, #47 ) ;
#111 = APPLICATION_PROTOCOL_DEFINITION ( 'international standard', 'config_control_design', 1994, #181 ) ;
#112 = DIRECTION ( 'NONE',  ( -1.000000000000000000, 0.0000000000000000000, 0.0000000000000000000 ) ) ;
#113 = ORIENTED_EDGE ( 'NONE', *, *, #281, .F. ) ;
#114 = VECTOR ( 'NONE', #261, 1000.000000000000100 ) ;
#115 = DIRECTION ( 'NONE',  ( -0.7071067811865345800, 0.0000000000000000000, -0.7071067811865604500 ) ) ;
#116 = CALENDAR_DATE ( 2015, 28, 4 ) ;
#117 = CARTESIAN_POINT ( 'NONE',  ( 0.0000000000000000000, 0.0000000000000000000, 39.55482590683998700 ) ) ;
#118 = AXIS2_PLACEMENT_3D ( 'NONE', #72, #294, #88 ) ;
#119 = ORIENTED_EDGE ( 'NONE', *, *, #185, .F. ) ;
#120 = CARTESIAN_POINT ( 'NONE',  ( 12.69999999999999900, 0.0000000000000000000, -0.2958560360304118800 ) ) ;
#121 = APPLICATION_CONTEXT ( 'configuration controlled 3d designs of mechanical parts and assemblies' ) ;
#122 = CYLINDRICAL_SURFACE ( 'NONE', #287, 12.69999999999999900 ) ;
#123 = AXIS2_PLACEMENT_3D ( 'NONE', #133, #90, #200 ) ;
#124 = ADVANCED_BREP_SHAPE_REPRESENTATION ( '24986-E0W', ( #153, #37 ), #240 ) ;
#125 = DIRECTION ( 'NONE',  ( -0.0000000000000000000, -0.0000000000000000000, 1.000000000000000000 ) ) ;
#126 = ORIENTED_EDGE ( 'NONE', *, *, #211, .F. ) ;
#127 = VECTOR ( 'NONE', #146, 1000.000000000000000 ) ;
#128 = CIRCLE ( 'NONE', #280, 34.51000000000000500 ) ;
#129 = PRODUCT ( '24986-E0W', '24986-E0W', '', ( #182 ) ) ;
#130 = PRODUCT_DEFINITION ( 'UNKNOWN', '', #17, #41 ) ;
#131 = APPROVAL ( #278, 'UNSPECIFIED' ) ;
#132 = ORIENTED_EDGE ( 'NONE', *, *, #211, .T. ) ;
#133 = CARTESIAN_POINT ( 'NONE',  ( 0.0000000000000000000, 0.0000000000000000000, 39.55482590683998700 ) ) ;
#134 = EDGE_CURVE ( 'NONE', #156, #165, #237, .T. ) ;
#135 = AXIS2_PLACEMENT_3D ( 'NONE', #106, #59, #249 ) ;
#136 = PRODUCT_RELATED_PRODUCT_CATEGORY ( 'detail', '', ( #129 ) ) ;
#137 = ORIENTED_EDGE ( 'NONE', *, *, #15, .F. ) ;
#138 = VERTEX_POINT ( 'NONE', #120 ) ;
#139 = DIRECTION ( 'NONE',  ( 1.000000000000000000, 0.0000000000000000000, 0.0000000000000000000 ) ) ;
#140 = FACE_OUTER_BOUND ( 'NONE', #141, .T. ) ;
#141 = EDGE_LOOP ( 'NONE', ( #113, #199, #68 ) ) ;
#142 = LINE ( 'NONE', #54, #244 ) ;
#143 = APPROVAL_STATUS ( 'not_yet_approved' ) ;
#144 = DIRECTION ( 'NONE',  ( 1.000000000000000000, 0.0000000000000000000, 0.0000000000000000000 ) ) ;
#145 = EDGE_LOOP ( 'NONE', ( #242, #230, #161, #173 ) ) ;
#146 = DIRECTION ( 'NONE',  ( 0.7071067811865345800, 8.659560562354775100E-017, -0.7071067811865604500 ) ) ;
#147 = AXIS2_PLACEMENT_3D ( 'NONE', #194, #257, #29 ) ;
#148 = EDGE_CURVE ( 'NONE', #286, #43, #180, .T. ) ;
#149 = PERSON_AND_ORGANIZATION_ROLE ( 'creator' ) ;
#150 = CC_DESIGN_SECURITY_CLASSIFICATION ( #32, ( #17 ) ) ;
#151 = DATE_AND_TIME ( #236, #178 ) ;
#152 = AXIS2_PLACEMENT_3D ( 'NONE', #222, #82, #300 ) ;
#153 = MANIFOLD_SOLID_BREP ( '24986-001-1-solid1', #63 ) ;
#154 = LOCAL_TIME ( 16, 37, 33.00000000000000000, #49 ) ;
#155 = EDGE_LOOP ( 'NONE', ( #58, #18, #228, #283 ) ) ;
#156 = VERTEX_POINT ( 'NONE', #210 ) ;
#157 = APPROVAL_DATE_TIME ( #151, #131 ) ;
#158 = ADVANCED_FACE ( 'NONE', ( #140 ), #175, .T. ) ;
#159 = EDGE_CURVE ( 'NONE', #165, #190, #216, .T. ) ;
#160 = ORIENTED_EDGE ( 'NONE', *, *, #212, .T. ) ;
#161 = ORIENTED_EDGE ( 'NONE', *, *, #57, .F. ) ;
#162 = VECTOR ( 'NONE', #74, 1000.000000000000100 ) ;
#163 = ORIENTED_EDGE ( 'NONE', *, *, #159, .T. ) ;
#164 = DIRECTION ( 'NONE',  ( -0.0000000000000000000, -0.0000000000000000000, 1.000000000000000000 ) ) ;
#165 = VERTEX_POINT ( 'NONE', #79 ) ;
#166 = CARTESIAN_POINT ( 'NONE',  ( 0.0000000000000000000, 0.0000000000000000000, -0.2958560360304118800 ) ) ;
#167 = CARTESIAN_POINT ( 'NONE',  ( 12.69999999999999900, 1.555301434917138400E-015, -0.2958560360304118800 ) ) ;
#168 = CARTESIAN_POINT ( 'NONE',  ( 0.0000000000000000000, 0.0000000000000000000, -2.210023622486879900 ) ) ;
#169 = LINE ( 'NONE', #99, #67 ) ;
#170 = VERTEX_POINT ( 'NONE', #251 ) ;
#171 = PERSON_AND_ORGANIZATION ( #25, #198 ) ;
#172 = LINE ( 'NONE', #256, #162 ) ;
#173 = ORIENTED_EDGE ( 'NONE', *, *, #159, .F. ) ;
#174 = APPROVAL_DATE_TIME ( #263, #102 ) ;
#175 = TOROIDAL_SURFACE ( 'NONE', #98, 0.004645728877362281800, 34.51000000000000500 ) ;
#176 = APPROVAL ( #143, 'UNSPECIFIED' ) ;
#177 = DIRECTION ( 'NONE',  ( -0.0000000000000000000, -0.0000000000000000000, 1.000000000000000000 ) ) ;
#178 = LOCAL_TIME ( 16, 37, 33.00000000000000000, #108 ) ;
#179 = ORIENTED_EDGE ( 'NONE', *, *, #134, .F. ) ;
#180 = LINE ( 'NONE', #219, #91 ) ;
#181 = APPLICATION_CONTEXT ( 'configuration controlled 3d designs of mechanical parts and assemblies' ) ;
#182 = MECHANICAL_CONTEXT ( 'NONE', #121, 'mechanical' ) ;
#183 = ADVANCED_FACE ( 'NONE', ( #71 ), #266, .T. ) ;
#184 = ORIENTED_EDGE ( 'NONE', *, *, #232, .F. ) ;
#185 = EDGE_CURVE ( 'NONE', #193, #3, #128, .T. ) ;
#186 = CIRCLE ( 'NONE', #147, 12.69999999999999900 ) ;
#187 = CALENDAR_DATE ( 2015, 28, 4 ) ;
#188 = ORIENTED_EDGE ( 'NONE', *, *, #221, .F. ) ;
#189 = DATE_TIME_ROLE ( 'creation_date' ) ;
#190 = VERTEX_POINT ( 'NONE', #279 ) ;
#191 = AXIS2_PLACEMENT_3D ( 'NONE', #209, #301, #259 ) ;
#192 = DIRECTION ( 'NONE',  ( 0.0000000000000000000, 0.0000000000000000000, -1.000000000000000000 ) ) ;
#193 = VERTEX_POINT ( 'NONE', #13 ) ;
#194 = CARTESIAN_POINT ( 'NONE',  ( 0.0000000000000000000, 0.0000000000000000000, -0.2958560360304118800 ) ) ;
#195 = DIRECTION ( 'NONE',  ( -1.000000000000000000, 0.0000000000000000000, 0.0000000000000000000 ) ) ;
#196 =( NAMED_UNIT ( * ) SI_UNIT ( $, .STERADIAN. ) SOLID_ANGLE_UNIT ( ) );
#197 = SECURITY_CLASSIFICATION_LEVEL ( 'unclassified' ) ;
#198 = ORGANIZATION ( 'UNSPECIFIED', 'UNSPECIFIED', '' ) ;
#199 = ORIENTED_EDGE ( 'NONE', *, *, #31, .T. ) ;
#200 = DIRECTION ( 'NONE',  ( 1.000000000000000000, 0.0000000000000000000, 0.0000000000000000000 ) ) ;
#201 = ORIENTED_EDGE ( 'NONE', *, *, #212, .F. ) ;
#202 = CARTESIAN_POINT ( 'NONE',  ( 0.004645728877362281800, 0.0000000000000000000, -32.30002330978335600 ) ) ;
#203 = COORDINATED_UNIVERSAL_TIME_OFFSET ( 5, 0, .BEHIND. ) ;
#204 = CONICAL_SURFACE ( 'NONE', #223, 12.69999999999999900, 0.7853981633974300700 ) ;
#205 = CC_DESIGN_PERSON_AND_ORGANIZATION_ASSIGNMENT ( #171, #70, ( #17 ) ) ;
#206 = ORIENTED_EDGE ( 'NONE', *, *, #273, .T. ) ;
#207 = AXIS2_PLACEMENT_3D ( 'NONE', #66, #270, #24 ) ;
#208 = FACE_OUTER_BOUND ( 'NONE', #276, .T. ) ;
#209 = CARTESIAN_POINT ( 'NONE',  ( 0.0000000000000000000, 0.0000000000000000000, -0.1544346797930987200 ) ) ;
#210 = CARTESIAN_POINT ( 'NONE',  ( -12.55857864376269000, 1.546641874354783400E-015, -2.210023622486879900 ) ) ;
#211 = EDGE_CURVE ( 'NONE', #170, #43, #142, .T. ) ;
#212 = EDGE_CURVE ( 'NONE', #190, #138, #169, .T. ) ;
#213 = COORDINATED_UNIVERSAL_TIME_OFFSET ( 5, 0, .BEHIND. ) ;
#214 = APPROVAL_DATE_TIME ( #23, #176 ) ;
#215 = AXIS2_PLACEMENT_3D ( 'NONE', #252, #6, #95 ) ;
#216 = LINE ( 'NONE', #238, #114 ) ;
#217 = FACE_OUTER_BOUND ( 'NONE', #20, .T. ) ;
#218 = CARTESIAN_POINT ( 'NONE',  ( 0.0000000000000000000, 0.0000000000000000000, -2.210023622486879900 ) ) ;
#219 = CARTESIAN_POINT ( 'NONE',  ( -12.69999999999999900, 0.0000000000000000000, -0.2958560360304118800 ) ) ;
#220 = FACE_OUTER_BOUND ( 'NONE', #155, .T. ) ;
#221 = EDGE_CURVE ( 'NONE', #165, #156, #101, .T. ) ;
#222 = CARTESIAN_POINT ( 'NONE',  ( 0.0000000000000000000, 0.0000000000000000000, -2.210023622486876300 ) ) ;
#223 = AXIS2_PLACEMENT_3D ( 'NONE', #61, #192, #195 ) ;
#224 = PERSON_AND_ORGANIZATION ( #25, #198 ) ;
#225 = CIRCLE ( 'NONE', #245, 12.69999999999999900 ) ;
#226 = LOCAL_TIME ( 16, 37, 33.00000000000000000, #213 ) ;
#227 = FACE_OUTER_BOUND ( 'NONE', #268, .T. ) ;
#228 = ORIENTED_EDGE ( 'NONE', *, *, #105, .T. ) ;
#229 = DIRECTION ( 'NONE',  ( 1.000000000000000000, 0.0000000000000000000, 0.0000000000000000000 ) ) ;
#230 = ORIENTED_EDGE ( 'NONE', *, *, #293, .T. ) ;
#231 = DIRECTION ( 'NONE',  ( -0.0000000000000000000, -0.0000000000000000000, 1.000000000000000000 ) ) ;
#232 = EDGE_CURVE ( 'NONE', #43, #138, #225, .T. ) ;
#233 = ADVANCED_FACE ( 'NONE', ( #208 ), #50, .T. ) ;
#234 = CIRCLE ( 'NONE', #191, 12.55857864376269200 ) ;
#235 = CARTESIAN_POINT ( 'NONE',  ( -12.55857864376269700, 1.537982313792429600E-015, -0.1544346797930987200 ) ) ;
#236 = CALENDAR_DATE ( 2015, 28, 4 ) ;
#237 = CIRCLE ( 'NONE', #60, 12.55857864376269000 ) ;
#238 = CARTESIAN_POINT ( 'NONE',  ( 12.55857864376269000, 0.0000000000000000000, -2.210023622486879900 ) ) ;
#239 = APPROVAL_ROLE ( '' ) ;
#240 =( GEOMETRIC_REPRESENTATION_CONTEXT ( 3 ) GLOBAL_UNCERTAINTY_ASSIGNED_CONTEXT ( ( #264 ) ) GLOBAL_UNIT_ASSIGNED_CONTEXT ( ( #27, #94, #196 ) ) REPRESENTATION_CONTEXT ( 'NONE', 'WORKASPACE' ) );
#241 = DIRECTION ( 'NONE',  ( 1.000000000000000000, 0.0000000000000000000, 0.0000000000000000000 ) ) ;
#242 = ORIENTED_EDGE ( 'NONE', *, *, #221, .T. ) ;
#243 = CARTESIAN_POINT ( 'NONE',  ( 0.0000000000000000000, 0.0000000000000000000, 0.0000000000000000000 ) ) ;
#244 = VECTOR ( 'NONE', #30, 1000.000000000000000 ) ;
#245 = AXIS2_PLACEMENT_3D ( 'NONE', #166, #125, #53 ) ;
#246 = CIRCLE ( 'NONE', #4, 12.69999999999999900 ) ;
#247 = ORIENTED_EDGE ( 'NONE', *, *, #105, .F. ) ;
#248 = CC_DESIGN_PERSON_AND_ORGANIZATION_ASSIGNMENT ( #39, #83, ( #17 ) ) ;
#249 = DIRECTION ( 'NONE',  ( -1.000000000000000000, 1.224646799147353000E-016, 0.0000000000000000000 ) ) ;
#250 = ORIENTED_EDGE ( 'NONE', *, *, #85, .T. ) ;
#251 = CARTESIAN_POINT ( 'NONE',  ( -12.69999999999999900, 1.555301434917138400E-015, -2.068602266249566700 ) ) ;
#252 = CARTESIAN_POINT ( 'NONE',  ( 0.0000000000000000000, 0.0000000000000000000, -2.068602266249566700 ) ) ;
#253 = PERSON_AND_ORGANIZATION ( #25, #198 ) ;
#254 = ADVANCED_FACE ( 'NONE', ( #217 ), #10, .T. ) ;
#255 = ADVANCED_FACE ( 'NONE', ( #220 ), #204, .T. ) ;
#256 = CARTESIAN_POINT ( 'NONE',  ( -12.55857864376269000, 1.537982313792428700E-015, -2.210023622486879900 ) ) ;
#257 = DIRECTION ( 'NONE',  ( -0.0000000000000000000, -0.0000000000000000000, 1.000000000000000000 ) ) ;
#258 = ORIENTED_EDGE ( 'NONE', *, *, #273, .F. ) ;
#259 = DIRECTION ( 'NONE',  ( 1.000000000000000000, 0.0000000000000000000, 0.0000000000000000000 ) ) ;
#260 = ORIENTED_EDGE ( 'NONE', *, *, #232, .T. ) ;
#261 = DIRECTION ( 'NONE',  ( 0.7071067811865388000, 0.0000000000000000000, 0.7071067811865561200 ) ) ;
#262 = DATE_TIME_ROLE ( 'classification_date' ) ;
#263 = DATE_AND_TIME ( #116, #154 ) ;
#264 = UNCERTAINTY_MEASURE_WITH_UNIT (LENGTH_MEASURE( 1.000000000000000100E-005 ), #27, 'distance_accuracy_value', 'NONE');
#265 = CALENDAR_DATE ( 2015, 28, 4 ) ;
#266 = CONICAL_SURFACE ( 'NONE', #275, 12.55857864376269000, 0.7853981633974360700 ) ;
#267 = CC_DESIGN_PERSON_AND_ORGANIZATION_ASSIGNMENT ( #96, #149, ( #130 ) ) ;
#268 = EDGE_LOOP ( 'NONE', ( #126, #206, #160, #184 ) ) ;
#269 = LINE ( 'NONE', #167, #127 ) ;
#270 = DIRECTION ( 'NONE',  ( -0.0000000000000000000, -0.0000000000000000000, 1.000000000000000000 ) ) ;
#271 = APPROVAL_ROLE ( '' ) ;
#272 = ADVANCED_FACE ( 'NONE', ( #227 ), #122, .T. ) ;
#273 = EDGE_CURVE ( 'NONE', #170, #190, #246, .T. ) ;
#274 = ORIENTED_EDGE ( 'NONE', *, *, #57, .T. ) ;
#275 = AXIS2_PLACEMENT_3D ( 'NONE', #168, #177, #229 ) ;
#276 = EDGE_LOOP ( 'NONE', ( #19, #299, #163, #258 ) ) ;
#277 = DIRECTION ( 'NONE',  ( 1.000000000000000000, 0.0000000000000000000, 0.0000000000000000000 ) ) ;
#278 = APPROVAL_STATUS ( 'not_yet_approved' ) ;
#279 = CARTESIAN_POINT ( 'NONE',  ( 12.69999999999999900, 0.0000000000000000000, -2.068602266249566700 ) ) ;
#280 = AXIS2_PLACEMENT_3D ( 'NONE', #202, #45, #73 ) ;
#281 = EDGE_CURVE ( 'NONE', #286, #3, #284, .T. ) ;
#282 = DIRECTION ( 'NONE',  ( 1.000000000000000000, 0.0000000000000000000, 0.0000000000000000000 ) ) ;
#283 = ORIENTED_EDGE ( 'NONE', *, *, #148, .F. ) ;
#284 = CIRCLE ( 'NONE', #135, 34.51000000000001200 ) ;
#285 = CC_DESIGN_PERSON_AND_ORGANIZATION_ASSIGNMENT ( #14, #104, ( #32 ) ) ;
#286 = VERTEX_POINT ( 'NONE', #235 ) ;
#287 = AXIS2_PLACEMENT_3D ( 'NONE', #117, #288, #34 ) ;
#288 = DIRECTION ( 'NONE',  ( -0.0000000000000000000, -0.0000000000000000000, 1.000000000000000000 ) ) ;
#289 = ORIENTED_EDGE ( 'NONE', *, *, #148, .T. ) ;
#290 = DIRECTION ( 'NONE',  ( -0.0000000000000000000, -0.0000000000000000000, 1.000000000000000000 ) ) ;
#291 = PERSON_AND_ORGANIZATION ( #25, #198 ) ;
#292 = DIRECTION ( 'NONE',  ( -0.0000000000000000000, -0.0000000000000000000, 1.000000000000000000 ) ) ;
#293 = EDGE_CURVE ( 'NONE', #156, #170, #172, .T. ) ;
#294 = DIRECTION ( 'NONE',  ( -0.0000000000000000000, -0.0000000000000000000, 1.000000000000000000 ) ) ;
#295 = CALENDAR_DATE ( 2015, 28, 4 ) ;
#296 = CIRCLE ( 'NONE', #207, 12.55857864376269200 ) ;
#297 = DIRECTION ( 'NONE',  ( 1.000000000000000000, 0.0000000000000000000, 0.0000000000000000000 ) ) ;
#298 = PERSON_AND_ORGANIZATION_ROLE ( 'design_owner' ) ;
#299 = ORIENTED_EDGE ( 'NONE', *, *, #134, .T. ) ;
#300 = DIRECTION ( 'NONE',  ( 1.000000000000000000, 0.0000000000000000000, 0.0000000000000000000 ) ) ;
#301 = DIRECTION ( 'NONE',  ( -0.0000000000000000000, -0.0000000000000000000, 1.000000000000000000 ) ) ;
ENDSEC;
END-ISO-10303-21;
