ISO-10303-21;
HEADER;
FILE_DESCRIPTION (( 'STEP AP203' ),
    '1' );
FILE_NAME ('Web Model 19724_19728.step',
    '2021-11-02T19:08:00',
    ( '' ),
    ( '' ),
    'SwSTEP 2.0',
    'SolidWorks 2018',
    '' );
FILE_SCHEMA (( 'CONFIG_CONTROL_DESIGN' ));
ENDSEC;

DATA;
#1 = AXIS2_PLACEMENT_3D ( 'NONE', #92, #122, #108 ) ;
#2 = EDGE_LOOP ( 'NONE', ( #16, #44 ) ) ;
#3 = PRODUCT_DEFINITION_FORMATION_WITH_SPECIFIED_SOURCE ( 'ANY', '', #110, .NOT_KNOWN. ) ;
#4 = CC_DESIGN_APPROVAL ( #98, ( #15 ) ) ;
#5 = PERSON_AND_ORGANIZATION ( #158, #29 ) ;
#6 = APPROVAL_ROLE ( '' ) ;
#7 = CC_DESIGN_SECURITY_CLASSIFICATION ( #160, ( #3 ) ) ;
#8 = APPROVAL_PERSON_ORGANIZATION ( #151, #98, #132 ) ;
#9 = CARTESIAN_POINT ( 'NONE',  ( -12.50000000000000000, 0.000000000000000000, 2.000000000000000000 ) ) ;
#10 = DIRECTION ( 'NONE',  ( 0.000000000000000000, 0.000000000000000000, 1.000000000000000000 ) ) ;
#11 = PLANE ( 'NONE',  #1 ) ;
#12 = DIRECTION ( 'NONE',  ( 1.000000000000000000, 0.000000000000000000, -0.000000000000000000 ) ) ;
#13 = DATE_AND_TIME ( #85, #131 ) ;
#14 = CC_DESIGN_DATE_AND_TIME_ASSIGNMENT ( #13, #90, ( #15 ) ) ;
#15 = PRODUCT_DEFINITION ( 'UNKNOWN', '', #3, #125 ) ;
#16 = ORIENTED_EDGE ( 'NONE', *, *, #28, .T. ) ;
#17 = LOCAL_TIME ( 15, 8, 0.000000000000000000, #102 ) ;
#18 = ORIENTED_EDGE ( 'NONE', *, *, #70, .T. ) ;
#19 = PERSON_AND_ORGANIZATION_ROLE ( 'design_owner' ) ;
#20 =( NAMED_UNIT ( * ) SI_UNIT ( $, .STERADIAN. ) SOLID_ANGLE_UNIT ( ) );
#21 = CARTESIAN_POINT ( 'NONE',  ( 0.000000000000000000, 0.000000000000000000, 2.000000000000000000 ) ) ;
#22 = DIRECTION ( 'NONE',  ( 0.000000000000000000, 0.000000000000000000, 1.000000000000000000 ) ) ;
#23 = CC_DESIGN_PERSON_AND_ORGANIZATION_ASSIGNMENT ( #63, #172, ( #160 ) ) ;
#24 = CARTESIAN_POINT ( 'NONE',  ( 12.50000000000000000, 1.530808498934191521E-15, 2.000000000000000000 ) ) ;
#25 = VERTEX_POINT ( 'NONE', #103 ) ;
#26 = EDGE_CURVE ( 'NONE', #62, #41, #81, .T. ) ;
#27 = EDGE_CURVE ( 'NONE', #41, #123, #83, .T. ) ;
#28 = EDGE_CURVE ( 'NONE', #41, #62, #77, .T. ) ;
#29 = ORGANIZATION ( 'UNSPECIFIED', 'UNSPECIFIED', '' ) ;
#30 = ORIENTED_EDGE ( 'NONE', *, *, #40, .T. ) ;
#31 = COORDINATED_UNIVERSAL_TIME_OFFSET ( 5, 0, .BEHIND. ) ;
#32 = FACE_OUTER_BOUND ( 'NONE', #2, .T. ) ;
#33 = LOCAL_TIME ( 15, 8, 0.000000000000000000, #156 ) ;
#34 = ADVANCED_FACE ( 'NONE', ( #94 ), #167, .T. ) ;
#35 = SECURITY_CLASSIFICATION_LEVEL ( 'unclassified' ) ;
#36 = CARTESIAN_POINT ( 'NONE',  ( -12.50000000000000000, 0.000000000000000000, 2.000000000000000000 ) ) ;
#37 = DATE_TIME_ROLE ( 'classification_date' ) ;
#38 = DIRECTION ( 'NONE',  ( 1.000000000000000000, 0.000000000000000000, 0.000000000000000000 ) ) ;
#39 = DIRECTION ( 'NONE',  ( -0.000000000000000000, -0.000000000000000000, -1.000000000000000000 ) ) ;
#40 = EDGE_CURVE ( 'NONE', #123, #25, #146, .T. ) ;
#41 = VERTEX_POINT ( 'NONE', #36 ) ;
#42 = EDGE_LOOP ( 'NONE', ( #137, #96 ) ) ;
#43 = APPROVAL_DATE_TIME ( #161, #68 ) ;
#44 = ORIENTED_EDGE ( 'NONE', *, *, #26, .T. ) ;
#45 = APPLICATION_PROTOCOL_DEFINITION ( 'international standard', 'config_control_design', 1994, #145 ) ;
#46 = DATE_AND_TIME ( #78, #17 ) ;
#47 = AXIS2_PLACEMENT_3D ( 'NONE', #116, #61, #86 ) ;
#48 = PERSON_AND_ORGANIZATION_ROLE ( 'creator' ) ;
#49 = VECTOR ( 'NONE', #152, 1000.000000000000000 ) ;
#50 = CARTESIAN_POINT ( 'NONE',  ( 12.50000000000000000, 1.530808498934191521E-15, 2.000000000000000000 ) ) ;
#51 = APPLICATION_CONTEXT ( 'configuration controlled 3d designs of mechanical parts and assemblies' ) ;
#52 = CARTESIAN_POINT ( 'NONE',  ( 0.000000000000000000, 0.000000000000000000, 0.000000000000000000 ) ) ;
#53 = APPLICATION_PROTOCOL_DEFINITION ( 'international standard', 'config_control_design', 1994, #51 ) ;
#54 = DIRECTION ( 'NONE',  ( 0.000000000000000000, 0.000000000000000000, 1.000000000000000000 ) ) ;
#55 = MANIFOLD_SOLID_BREP ( 'Boss-Extrude1', #130 ) ;
#56 = ORIENTED_EDGE ( 'NONE', *, *, #70, .F. ) ;
#57 = COORDINATED_UNIVERSAL_TIME_OFFSET ( 5, 0, .BEHIND. ) ;
#58 = ORIENTED_EDGE ( 'NONE', *, *, #74, .T. ) ;
#59 = VECTOR ( 'NONE', #89, 1000.000000000000000 ) ;
#60 = CC_DESIGN_PERSON_AND_ORGANIZATION_ASSIGNMENT ( #153, #173, ( #15 ) ) ;
#61 = DIRECTION ( 'NONE',  ( 0.000000000000000000, 0.000000000000000000, 1.000000000000000000 ) ) ;
#62 = VERTEX_POINT ( 'NONE', #24 ) ;
#63 = PERSON_AND_ORGANIZATION ( #158, #29 ) ;
#64 = CC_DESIGN_PERSON_AND_ORGANIZATION_ASSIGNMENT ( #5, #48, ( #3 ) ) ;
#65 = DIRECTION ( 'NONE',  ( -1.000000000000000000, 0.000000000000000000, 0.000000000000000000 ) ) ;
#66 = PLANE ( 'NONE',  #128 ) ;
#67 = APPROVAL_PERSON_ORGANIZATION ( #73, #68, #117 ) ;
#68 = APPROVAL ( #119, 'UNSPECIFIED' ) ;
#69 = APPROVAL_PERSON_ORGANIZATION ( #135, #134, #6 ) ;
#70 = EDGE_CURVE ( 'NONE', #62, #25, #79, .T. ) ;
#71 = CARTESIAN_POINT ( 'NONE',  ( 0.000000000000000000, 0.000000000000000000, 0.000000000000000000 ) ) ;
#72 = AXIS2_PLACEMENT_3D ( 'NONE', #129, #88, #171 ) ;
#73 = PERSON_AND_ORGANIZATION ( #158, #29 ) ;
#74 = EDGE_CURVE ( 'NONE', #25, #123, #162, .T. ) ;
#75 = MECHANICAL_CONTEXT ( 'NONE', #51, 'mechanical' ) ;
#76 = DIRECTION ( 'NONE',  ( 1.000000000000000000, 0.000000000000000000, 0.000000000000000000 ) ) ;
#77 = CIRCLE ( 'NONE', #112, 12.50000000000000000 ) ;
#78 = CALENDAR_DATE ( 2021, 2, 11 ) ;
#79 = LINE ( 'NONE', #50, #59 ) ;
#80 = AXIS2_PLACEMENT_3D ( 'NONE', #52, #54, #38 ) ;
#81 = CIRCLE ( 'NONE', #47, 12.50000000000000000 ) ;
#82 = ADVANCED_FACE ( 'NONE', ( #118 ), #11, .F. ) ;
#83 = LINE ( 'NONE', #9, #49 ) ;
#84 = PERSON_AND_ORGANIZATION_ROLE ( 'design_supplier' ) ;
#85 = CALENDAR_DATE ( 2021, 2, 11 ) ;
#86 = DIRECTION ( 'NONE',  ( 1.000000000000000000, 0.000000000000000000, 0.000000000000000000 ) ) ;
#87 = CC_DESIGN_PERSON_AND_ORGANIZATION_ASSIGNMENT ( #175, #19, ( #110 ) ) ;
#88 = DIRECTION ( 'NONE',  ( -0.000000000000000000, -0.000000000000000000, -1.000000000000000000 ) ) ;
#89 = DIRECTION ( 'NONE',  ( -0.000000000000000000, -0.000000000000000000, -1.000000000000000000 ) ) ;
#90 = DATE_TIME_ROLE ( 'creation_date' ) ;
#91 = CARTESIAN_POINT ( 'NONE',  ( 0.000000000000000000, 0.000000000000000000, 2.000000000000000000 ) ) ;
#92 = CARTESIAN_POINT ( 'NONE',  ( 0.000000000000000000, 0.000000000000000000, 0.000000000000000000 ) ) ;
#93 = AXIS2_PLACEMENT_3D ( 'NONE', #157, #174, #76 ) ;
#94 = FACE_OUTER_BOUND ( 'NONE', #126, .T. ) ;
#95 = ADVANCED_BREP_SHAPE_REPRESENTATION ( 'Web Model 19724_19728', ( #55, #170 ), #100 ) ;
#96 = ORIENTED_EDGE ( 'NONE', *, *, #74, .F. ) ;
#97 = CYLINDRICAL_SURFACE ( 'NONE', #121, 12.50000000000000000 ) ;
#98 = APPROVAL ( #140, 'UNSPECIFIED' ) ;
#99 = SHAPE_DEFINITION_REPRESENTATION ( #107, #95 ) ;
#100 =( GEOMETRIC_REPRESENTATION_CONTEXT ( 3 ) GLOBAL_UNCERTAINTY_ASSIGNED_CONTEXT ( ( #139 ) ) GLOBAL_UNIT_ASSIGNED_CONTEXT ( ( #155, #164, #20 ) ) REPRESENTATION_CONTEXT ( 'NONE', 'WORKASPACE' ) );
#101 = ORIENTED_EDGE ( 'NONE', *, *, #27, .T. ) ;
#102 = COORDINATED_UNIVERSAL_TIME_OFFSET ( 5, 0, .BEHIND. ) ;
#103 = CARTESIAN_POINT ( 'NONE',  ( 12.50000000000000000, 1.530808498934191521E-15, 0.000000000000000000 ) ) ;
#104 = CC_DESIGN_PERSON_AND_ORGANIZATION_ASSIGNMENT ( #143, #84, ( #3 ) ) ;
#105 = CARTESIAN_POINT ( 'NONE',  ( -12.50000000000000000, 0.000000000000000000, 0.000000000000000000 ) ) ;
#106 = DIRECTION ( 'NONE',  ( 1.000000000000000000, 0.000000000000000000, 0.000000000000000000 ) ) ;
#107 = PRODUCT_DEFINITION_SHAPE ( 'NONE', 'NONE',  #15 ) ;
#108 = DIRECTION ( 'NONE',  ( 1.000000000000000000, 0.000000000000000000, -0.000000000000000000 ) ) ;
#109 = ORIENTED_EDGE ( 'NONE', *, *, #27, .F. ) ;
#110 = PRODUCT ( 'Web Model 19724_19728', 'Web Model 19724_19728', '', ( #75 ) ) ;
#111 = APPROVAL_DATE_TIME ( #46, #98 ) ;
#112 = AXIS2_PLACEMENT_3D ( 'NONE', #144, #168, #113 ) ;
#113 = DIRECTION ( 'NONE',  ( 1.000000000000000000, 0.000000000000000000, 0.000000000000000000 ) ) ;
#114 = LOCAL_TIME ( 15, 8, 0.000000000000000000, #57 ) ;
#115 = PRODUCT_RELATED_PRODUCT_CATEGORY ( 'detail', '', ( #110 ) ) ;
#116 = CARTESIAN_POINT ( 'NONE',  ( 0.000000000000000000, 0.000000000000000000, 2.000000000000000000 ) ) ;
#117 = APPROVAL_ROLE ( '' ) ;
#118 = FACE_OUTER_BOUND ( 'NONE', #42, .T. ) ;
#119 = APPROVAL_STATUS ( 'not_yet_approved' ) ;
#120 = EDGE_LOOP ( 'NONE', ( #141, #18, #58, #109 ) ) ;
#121 = AXIS2_PLACEMENT_3D ( 'NONE', #21, #39, #65 ) ;
#122 = DIRECTION ( 'NONE',  ( 0.000000000000000000, 0.000000000000000000, 1.000000000000000000 ) ) ;
#123 = VERTEX_POINT ( 'NONE', #105 ) ;
#124 = DATE_AND_TIME ( #147, #114 ) ;
#125 = DESIGN_CONTEXT ( 'detailed design', #145, 'design' ) ;
#126 = EDGE_LOOP ( 'NONE', ( #56, #154, #101, #30 ) ) ;
#127 = ADVANCED_FACE ( 'NONE', ( #148 ), #97, .T. ) ;
#128 = AXIS2_PLACEMENT_3D ( 'NONE', #91, #22, #12 ) ;
#129 = CARTESIAN_POINT ( 'NONE',  ( 0.000000000000000000, 0.000000000000000000, 2.000000000000000000 ) ) ;
#130 = CLOSED_SHELL ( 'NONE', ( #127, #34, #163, #82 ) ) ;
#131 = LOCAL_TIME ( 15, 8, 0.000000000000000000, #165 ) ;
#132 = APPROVAL_ROLE ( '' ) ;
#133 = APPROVAL_DATE_TIME ( #169, #134 ) ;
#134 = APPROVAL ( #149, 'UNSPECIFIED' ) ;
#135 = PERSON_AND_ORGANIZATION ( #158, #29 ) ;
#136 = CC_DESIGN_DATE_AND_TIME_ASSIGNMENT ( #124, #37, ( #160 ) ) ;
#137 = ORIENTED_EDGE ( 'NONE', *, *, #40, .F. ) ;
#138 = LOCAL_TIME ( 15, 8, 0.000000000000000000, #31 ) ;
#139 = UNCERTAINTY_MEASURE_WITH_UNIT (LENGTH_MEASURE( 1.000000000000000082E-05 ), #155, 'distance_accuracy_value', 'NONE');
#140 = APPROVAL_STATUS ( 'not_yet_approved' ) ;
#141 = ORIENTED_EDGE ( 'NONE', *, *, #26, .F. ) ;
#142 = CC_DESIGN_APPROVAL ( #134, ( #160 ) ) ;
#143 = PERSON_AND_ORGANIZATION ( #158, #29 ) ;
#144 = CARTESIAN_POINT ( 'NONE',  ( 0.000000000000000000, 0.000000000000000000, 2.000000000000000000 ) ) ;
#145 = APPLICATION_CONTEXT ( 'configuration controlled 3d designs of mechanical parts and assemblies' ) ;
#146 = CIRCLE ( 'NONE', #80, 12.50000000000000000 ) ;
#147 = CALENDAR_DATE ( 2021, 2, 11 ) ;
#148 = FACE_OUTER_BOUND ( 'NONE', #120, .T. ) ;
#149 = APPROVAL_STATUS ( 'not_yet_approved' ) ;
#150 = CC_DESIGN_APPROVAL ( #68, ( #3 ) ) ;
#151 = PERSON_AND_ORGANIZATION ( #158, #29 ) ;
#152 = DIRECTION ( 'NONE',  ( -0.000000000000000000, -0.000000000000000000, -1.000000000000000000 ) ) ;
#153 = PERSON_AND_ORGANIZATION ( #158, #29 ) ;
#154 = ORIENTED_EDGE ( 'NONE', *, *, #28, .F. ) ;
#155 =( LENGTH_UNIT ( ) NAMED_UNIT ( * ) SI_UNIT ( .MILLI., .METRE. ) );
#156 = COORDINATED_UNIVERSAL_TIME_OFFSET ( 5, 0, .BEHIND. ) ;
#157 = CARTESIAN_POINT ( 'NONE',  ( 0.000000000000000000, 0.000000000000000000, 0.000000000000000000 ) ) ;
#158 = PERSON ( 'UNSPECIFIED', 'UNSPECIFIED', 'UNSPECIFIED', ('UNSPECIFIED'), ('UNSPECIFIED'), ('UNSPECIFIED') ) ;
#159 = CALENDAR_DATE ( 2021, 2, 11 ) ;
#160 = SECURITY_CLASSIFICATION ( '', '', #35 ) ;
#161 = DATE_AND_TIME ( #159, #138 ) ;
#162 = CIRCLE ( 'NONE', #93, 12.50000000000000000 ) ;
#163 = ADVANCED_FACE ( 'NONE', ( #32 ), #66, .T. ) ;
#164 =( NAMED_UNIT ( * ) PLANE_ANGLE_UNIT ( ) SI_UNIT ( $, .RADIAN. ) );
#165 = COORDINATED_UNIVERSAL_TIME_OFFSET ( 5, 0, .BEHIND. ) ;
#166 = CALENDAR_DATE ( 2021, 2, 11 ) ;
#167 = CYLINDRICAL_SURFACE ( 'NONE', #72, 12.50000000000000000 ) ;
#168 = DIRECTION ( 'NONE',  ( 0.000000000000000000, 0.000000000000000000, 1.000000000000000000 ) ) ;
#169 = DATE_AND_TIME ( #166, #33 ) ;
#170 = AXIS2_PLACEMENT_3D ( 'NONE', #71, #10, #106 ) ;
#171 = DIRECTION ( 'NONE',  ( -1.000000000000000000, 0.000000000000000000, 0.000000000000000000 ) ) ;
#172 = PERSON_AND_ORGANIZATION_ROLE ( 'classification_officer' ) ;
#173 = PERSON_AND_ORGANIZATION_ROLE ( 'creator' ) ;
#174 = DIRECTION ( 'NONE',  ( 0.000000000000000000, 0.000000000000000000, 1.000000000000000000 ) ) ;
#175 = PERSON_AND_ORGANIZATION ( #158, #29 ) ;
ENDSEC;
END-ISO-10303-21;
