ISO-10303-21;
HEADER;
FILE_DESCRIPTION (( 'STEP AP203' ),
    '1' );
FILE_NAME ('Web Model 17172.step',
    '2021-06-17T18:09:27',
    ( '' ),
    ( '' ),
    'SwSTEP 2.0',
    'SolidWorks 2018',
    '' );
FILE_SCHEMA (( 'CONFIG_CONTROL_DESIGN' ));
ENDSEC;

DATA;
#1 = APPROVAL_PERSON_ORGANIZATION ( #15, #29, #17 ) ;
#2 = LOCAL_TIME ( 14, 9, 27.00000000000000000, #78 ) ;
#3 = DATE_TIME_ROLE ( 'classification_date' ) ;
#4 = EDGE_LOOP ( 'NONE', ( #174, #49 ) ) ;
#5 = CALENDAR_DATE ( 2021, 17, 6 ) ;
#6 = DIRECTION ( 'NONE',  ( -1.000000000000000000, 0.000000000000000000, 0.000000000000000000 ) ) ;
#7 =( GEOMETRIC_REPRESENTATION_CONTEXT ( 3 ) GLOBAL_UNCERTAINTY_ASSIGNED_CONTEXT ( ( #27 ) ) GLOBAL_UNIT_ASSIGNED_CONTEXT ( ( #8, #23, #129 ) ) REPRESENTATION_CONTEXT ( 'NONE', 'WORKASPACE' ) );
#8 =( CONVERSION_BASED_UNIT ( 'INCH', #144 ) LENGTH_UNIT ( ) NAMED_UNIT ( #165 ) );
#9 = CARTESIAN_POINT ( 'NONE',  ( 0.000000000000000000, 0.000000000000000000, 0.1574803149606299191 ) ) ;
#10 = DIRECTION ( 'NONE',  ( -1.000000000000000000, 0.000000000000000000, 0.000000000000000000 ) ) ;
#11 = CARTESIAN_POINT ( 'NONE',  ( -3.937007874015748143, 0.000000000000000000, 0.1574803149606299191 ) ) ;
#12 = EDGE_CURVE ( 'NONE', #177, #91, #153, .T. ) ;
#13 = DIRECTION ( 'NONE',  ( -0.000000000000000000, -0.000000000000000000, -1.000000000000000000 ) ) ;
#14 = ORIENTED_EDGE ( 'NONE', *, *, #87, .F. ) ;
#15 = PERSON_AND_ORGANIZATION ( #71, #45 ) ;
#16 = DIRECTION ( 'NONE',  ( 0.000000000000000000, 0.000000000000000000, 1.000000000000000000 ) ) ;
#17 = APPROVAL_ROLE ( '' ) ;
#18 = APPROVAL_DATE_TIME ( #56, #156 ) ;
#19 = AXIS2_PLACEMENT_3D ( 'NONE', #22, #161, #50 ) ;
#20 = DIRECTION ( 'NONE',  ( 0.000000000000000000, 0.000000000000000000, 1.000000000000000000 ) ) ;
#21 = DIRECTION ( 'NONE',  ( 1.000000000000000000, 0.000000000000000000, 0.000000000000000000 ) ) ;
#22 = CARTESIAN_POINT ( 'NONE',  ( 0.000000000000000000, 0.000000000000000000, 0.000000000000000000 ) ) ;
#23 =( NAMED_UNIT ( * ) PLANE_ANGLE_UNIT ( ) SI_UNIT ( $, .RADIAN. ) );
#24 = EDGE_LOOP ( 'NONE', ( #14, #164, #46, #58 ) ) ;
#25 = CC_DESIGN_PERSON_AND_ORGANIZATION_ASSIGNMENT ( #109, #82, ( #79 ) ) ;
#26 = CALENDAR_DATE ( 2021, 17, 6 ) ;
#27 = UNCERTAINTY_MEASURE_WITH_UNIT (LENGTH_MEASURE( 1.000000000000000082E-05 ), #8, 'distance_accuracy_value', 'NONE');
#28 = DATE_AND_TIME ( #175, #2 ) ;
#29 = APPROVAL ( #131, 'UNSPECIFIED' ) ;
#30 = VERTEX_POINT ( 'NONE', #159 ) ;
#31 = DATE_AND_TIME ( #5, #113 ) ;
#32 = ORIENTED_EDGE ( 'NONE', *, *, #87, .T. ) ;
#33 = COORDINATED_UNIVERSAL_TIME_OFFSET ( 5, 0, .BEHIND. ) ;
#34 = CARTESIAN_POINT ( 'NONE',  ( 0.000000000000000000, 0.000000000000000000, 0.1574803149606299191 ) ) ;
#35 = LOCAL_TIME ( 14, 9, 27.00000000000000000, #135 ) ;
#36 = APPROVAL ( #148, 'UNSPECIFIED' ) ;
#37 = APPLICATION_PROTOCOL_DEFINITION ( 'international standard', 'config_control_design', 1994, #100 ) ;
#38 = DIRECTION ( 'NONE',  ( 0.000000000000000000, 0.000000000000000000, 1.000000000000000000 ) ) ;
#39 = FACE_OUTER_BOUND ( 'NONE', #24, .T. ) ;
#40 = AXIS2_PLACEMENT_3D ( 'NONE', #119, #38, #130 ) ;
#41 = SHAPE_DEFINITION_REPRESENTATION ( #142, #76 ) ;
#42 = ORIENTED_EDGE ( 'NONE', *, *, #128, .F. ) ;
#43 = ORIENTED_EDGE ( 'NONE', *, *, #151, .T. ) ;
#44 = VECTOR ( 'NONE', #149, 39.37007874015748143 ) ;
#45 = ORGANIZATION ( 'UNSPECIFIED', 'UNSPECIFIED', '' ) ;
#46 = ORIENTED_EDGE ( 'NONE', *, *, #122, .T. ) ;
#47 = PRODUCT ( 'Web Model 17172', 'Web Model 17172', '', ( #57 ) ) ;
#48 = DIRECTION ( 'NONE',  ( 1.000000000000000000, 0.000000000000000000, -0.000000000000000000 ) ) ;
#49 = ORIENTED_EDGE ( 'NONE', *, *, #122, .F. ) ;
#50 = DIRECTION ( 'NONE',  ( 1.000000000000000000, 0.000000000000000000, 0.000000000000000000 ) ) ;
#51 = DIRECTION ( 'NONE',  ( 0.000000000000000000, 0.000000000000000000, 1.000000000000000000 ) ) ;
#52 = ADVANCED_FACE ( 'NONE', ( #163 ), #90, .T. ) ;
#53 = CC_DESIGN_PERSON_AND_ORGANIZATION_ASSIGNMENT ( #93, #115, ( #47 ) ) ;
#54 = CYLINDRICAL_SURFACE ( 'NONE', #170, 3.937007874015748143 ) ;
#55 = VERTEX_POINT ( 'NONE', #158 ) ;
#56 = DATE_AND_TIME ( #173, #64 ) ;
#57 = MECHANICAL_CONTEXT ( 'NONE', #116, 'mechanical' ) ;
#58 = ORIENTED_EDGE ( 'NONE', *, *, #151, .F. ) ;
#59 = APPROVAL_ROLE ( '' ) ;
#60 = PERSON_AND_ORGANIZATION_ROLE ( 'creator' ) ;
#61 = CC_DESIGN_PERSON_AND_ORGANIZATION_ASSIGNMENT ( #77, #133, ( #140 ) ) ;
#62 = APPROVAL_PERSON_ORGANIZATION ( #155, #36, #97 ) ;
#63 = CC_DESIGN_APPROVAL ( #29, ( #79 ) ) ;
#64 = LOCAL_TIME ( 14, 9, 27.00000000000000000, #66 ) ;
#65 = ADVANCED_FACE ( 'NONE', ( #68 ), #85, .T. ) ;
#66 = COORDINATED_UNIVERSAL_TIME_OFFSET ( 5, 0, .BEHIND. ) ;
#67 = CLOSED_SHELL ( 'NONE', ( #166, #52, #65, #137 ) ) ;
#68 = FACE_OUTER_BOUND ( 'NONE', #70, .T. ) ;
#69 = AXIS2_PLACEMENT_3D ( 'NONE', #168, #16, #143 ) ;
#70 = EDGE_LOOP ( 'NONE', ( #88, #32 ) ) ;
#71 = PERSON ( 'UNSPECIFIED', 'UNSPECIFIED', 'UNSPECIFIED', ('UNSPECIFIED'), ('UNSPECIFIED'), ('UNSPECIFIED') ) ;
#72 = APPLICATION_PROTOCOL_DEFINITION ( 'international standard', 'config_control_design', 1994, #116 ) ;
#73 = CIRCLE ( 'NONE', #40, 3.937007874015748143 ) ;
#74 = DESIGN_CONTEXT ( 'detailed design', #100, 'design' ) ;
#75 = VECTOR ( 'NONE', #13, 39.37007874015748143 ) ;
#76 = ADVANCED_BREP_SHAPE_REPRESENTATION ( 'Web Model 17172', ( #80, #19 ), #7 ) ;
#77 = PERSON_AND_ORGANIZATION ( #71, #45 ) ;
#78 = COORDINATED_UNIVERSAL_TIME_OFFSET ( 5, 0, .BEHIND. ) ;
#79 = PRODUCT_DEFINITION ( 'UNKNOWN', '', #140, #74 ) ;
#80 = MANIFOLD_SOLID_BREP ( 'Boss-Extrude1', #67 ) ;
#81 = DIRECTION ( 'NONE',  ( 1.000000000000000000, 0.000000000000000000, -0.000000000000000000 ) ) ;
#82 = PERSON_AND_ORGANIZATION_ROLE ( 'creator' ) ;
#83 = DIRECTION ( 'NONE',  ( 0.000000000000000000, 0.000000000000000000, 1.000000000000000000 ) ) ;
#84 = CARTESIAN_POINT ( 'NONE',  ( -3.937007874015748143, 0.000000000000000000, 0.000000000000000000 ) ) ;
#85 = PLANE ( 'NONE',  #167 ) ;
#86 = LOCAL_TIME ( 14, 9, 27.00000000000000000, #33 ) ;
#87 = EDGE_CURVE ( 'NONE', #55, #30, #73, .T. ) ;
#88 = ORIENTED_EDGE ( 'NONE', *, *, #145, .T. ) ;
#89 = ORIENTED_EDGE ( 'NONE', *, *, #145, .F. ) ;
#90 = CYLINDRICAL_SURFACE ( 'NONE', #154, 3.937007874015748143 ) ;
#91 = VERTEX_POINT ( 'NONE', #114 ) ;
#92 = CC_DESIGN_APPROVAL ( #156, ( #104 ) ) ;
#93 = PERSON_AND_ORGANIZATION ( #71, #45 ) ;
#94 =( LENGTH_UNIT ( ) NAMED_UNIT ( * ) SI_UNIT ( $, .METRE. ) );
#95 = AXIS2_PLACEMENT_3D ( 'NONE', #117, #20, #21 ) ;
#96 = ORIENTED_EDGE ( 'NONE', *, *, #12, .T. ) ;
#97 = APPROVAL_ROLE ( '' ) ;
#98 = DIRECTION ( 'NONE',  ( 1.000000000000000000, 0.000000000000000000, 0.000000000000000000 ) ) ;
#99 = COORDINATED_UNIVERSAL_TIME_OFFSET ( 5, 0, .BEHIND. ) ;
#100 = APPLICATION_CONTEXT ( 'configuration controlled 3d designs of mechanical parts and assemblies' ) ;
#101 = PLANE ( 'NONE',  #162 ) ;
#102 = CIRCLE ( 'NONE', #157, 3.937007874015748143 ) ;
#103 = APPROVAL_PERSON_ORGANIZATION ( #146, #156, #59 ) ;
#104 = SECURITY_CLASSIFICATION ( '', '', #160 ) ;
#105 = PERSON_AND_ORGANIZATION ( #71, #45 ) ;
#106 = CC_DESIGN_DATE_AND_TIME_ASSIGNMENT ( #176, #112, ( #79 ) ) ;
#107 = APPROVAL_DATE_TIME ( #125, #29 ) ;
#108 = EDGE_LOOP ( 'NONE', ( #42, #89, #43, #96 ) ) ;
#109 = PERSON_AND_ORGANIZATION ( #71, #45 ) ;
#110 = CC_DESIGN_APPROVAL ( #36, ( #140 ) ) ;
#111 = CARTESIAN_POINT ( 'NONE',  ( 0.000000000000000000, 0.000000000000000000, 0.1574803149606299191 ) ) ;
#112 = DATE_TIME_ROLE ( 'creation_date' ) ;
#113 = LOCAL_TIME ( 14, 9, 27.00000000000000000, #99 ) ;
#114 = CARTESIAN_POINT ( 'NONE',  ( 3.937007874015748143, 4.821444091131311894E-16, 0.000000000000000000 ) ) ;
#115 = PERSON_AND_ORGANIZATION_ROLE ( 'design_owner' ) ;
#116 = APPLICATION_CONTEXT ( 'configuration controlled 3d designs of mechanical parts and assemblies' ) ;
#117 = CARTESIAN_POINT ( 'NONE',  ( 0.000000000000000000, 0.000000000000000000, 0.000000000000000000 ) ) ;
#118 = DIRECTION ( 'NONE',  ( -0.000000000000000000, -0.000000000000000000, -1.000000000000000000 ) ) ;
#119 = CARTESIAN_POINT ( 'NONE',  ( 0.000000000000000000, 0.000000000000000000, 0.1574803149606299191 ) ) ;
#120 = APPROVAL_DATE_TIME ( #28, #36 ) ;
#121 = CC_DESIGN_DATE_AND_TIME_ASSIGNMENT ( #31, #3, ( #104 ) ) ;
#122 = EDGE_CURVE ( 'NONE', #91, #177, #102, .T. ) ;
#123 = CALENDAR_DATE ( 2021, 17, 6 ) ;
#124 = CC_DESIGN_PERSON_AND_ORGANIZATION_ASSIGNMENT ( #169, #60, ( #140 ) ) ;
#125 = DATE_AND_TIME ( #26, #35 ) ;
#126 = CC_DESIGN_SECURITY_CLASSIFICATION ( #104, ( #140 ) ) ;
#127 = DIRECTION ( 'NONE',  ( 0.000000000000000000, 0.000000000000000000, 1.000000000000000000 ) ) ;
#128 = EDGE_CURVE ( 'NONE', #55, #91, #141, .T. ) ;
#129 =( NAMED_UNIT ( * ) SI_UNIT ( $, .STERADIAN. ) SOLID_ANGLE_UNIT ( ) );
#130 = DIRECTION ( 'NONE',  ( 1.000000000000000000, 0.000000000000000000, 0.000000000000000000 ) ) ;
#131 = APPROVAL_STATUS ( 'not_yet_approved' ) ;
#132 = CARTESIAN_POINT ( 'NONE',  ( 3.937007874015748143, 4.821444091131311894E-16, 0.1574803149606299191 ) ) ;
#133 = PERSON_AND_ORGANIZATION_ROLE ( 'design_supplier' ) ;
#134 = CARTESIAN_POINT ( 'NONE',  ( 0.000000000000000000, 0.000000000000000000, 0.000000000000000000 ) ) ;
#135 = COORDINATED_UNIVERSAL_TIME_OFFSET ( 5, 0, .BEHIND. ) ;
#136 = LINE ( 'NONE', #11, #75 ) ;
#137 = ADVANCED_FACE ( 'NONE', ( #178 ), #101, .F. ) ;
#138 = PRODUCT_RELATED_PRODUCT_CATEGORY ( 'detail', '', ( #47 ) ) ;
#139 = CIRCLE ( 'NONE', #69, 3.937007874015748143 ) ;
#140 = PRODUCT_DEFINITION_FORMATION_WITH_SPECIFIED_SOURCE ( 'ANY', '', #47, .NOT_KNOWN. ) ;
#141 = LINE ( 'NONE', #132, #44 ) ;
#142 = PRODUCT_DEFINITION_SHAPE ( 'NONE', 'NONE',  #79 ) ;
#143 = DIRECTION ( 'NONE',  ( 1.000000000000000000, 0.000000000000000000, 0.000000000000000000 ) ) ;
#144 = LENGTH_MEASURE_WITH_UNIT ( LENGTH_MEASURE( 0.02539999999999999897 ), #94 );
#145 = EDGE_CURVE ( 'NONE', #30, #55, #139, .T. ) ;
#146 = PERSON_AND_ORGANIZATION ( #71, #45 ) ;
#147 = PERSON_AND_ORGANIZATION_ROLE ( 'classification_officer' ) ;
#148 = APPROVAL_STATUS ( 'not_yet_approved' ) ;
#149 = DIRECTION ( 'NONE',  ( -0.000000000000000000, -0.000000000000000000, -1.000000000000000000 ) ) ;
#150 = APPROVAL_STATUS ( 'not_yet_approved' ) ;
#151 = EDGE_CURVE ( 'NONE', #30, #177, #136, .T. ) ;
#152 = CC_DESIGN_PERSON_AND_ORGANIZATION_ASSIGNMENT ( #105, #147, ( #104 ) ) ;
#153 = CIRCLE ( 'NONE', #95, 3.937007874015748143 ) ;
#154 = AXIS2_PLACEMENT_3D ( 'NONE', #111, #171, #10 ) ;
#155 = PERSON_AND_ORGANIZATION ( #71, #45 ) ;
#156 = APPROVAL ( #150, 'UNSPECIFIED' ) ;
#157 = AXIS2_PLACEMENT_3D ( 'NONE', #172, #83, #98 ) ;
#158 = CARTESIAN_POINT ( 'NONE',  ( 3.937007874015748143, 4.821444091131311894E-16, 0.1574803149606299191 ) ) ;
#159 = CARTESIAN_POINT ( 'NONE',  ( -3.937007874015748143, 0.000000000000000000, 0.1574803149606299191 ) ) ;
#160 = SECURITY_CLASSIFICATION_LEVEL ( 'unclassified' ) ;
#161 = DIRECTION ( 'NONE',  ( 0.000000000000000000, 0.000000000000000000, 1.000000000000000000 ) ) ;
#162 = AXIS2_PLACEMENT_3D ( 'NONE', #134, #51, #81 ) ;
#163 = FACE_OUTER_BOUND ( 'NONE', #108, .T. ) ;
#164 = ORIENTED_EDGE ( 'NONE', *, *, #128, .T. ) ;
#165 = DIMENSIONAL_EXPONENTS ( 1.000000000000000000, 0.000000000000000000, 0.000000000000000000, 0.000000000000000000, 0.000000000000000000, 0.000000000000000000, 0.000000000000000000 ) ;
#166 = ADVANCED_FACE ( 'NONE', ( #39 ), #54, .T. ) ;
#167 = AXIS2_PLACEMENT_3D ( 'NONE', #34, #127, #48 ) ;
#168 = CARTESIAN_POINT ( 'NONE',  ( 0.000000000000000000, 0.000000000000000000, 0.1574803149606299191 ) ) ;
#169 = PERSON_AND_ORGANIZATION ( #71, #45 ) ;
#170 = AXIS2_PLACEMENT_3D ( 'NONE', #9, #118, #6 ) ;
#171 = DIRECTION ( 'NONE',  ( -0.000000000000000000, -0.000000000000000000, -1.000000000000000000 ) ) ;
#172 = CARTESIAN_POINT ( 'NONE',  ( 0.000000000000000000, 0.000000000000000000, 0.000000000000000000 ) ) ;
#173 = CALENDAR_DATE ( 2021, 17, 6 ) ;
#174 = ORIENTED_EDGE ( 'NONE', *, *, #12, .F. ) ;
#175 = CALENDAR_DATE ( 2021, 17, 6 ) ;
#176 = DATE_AND_TIME ( #123, #86 ) ;
#177 = VERTEX_POINT ( 'NONE', #84 ) ;
#178 = FACE_OUTER_BOUND ( 'NONE', #4, .T. ) ;
ENDSEC;
END-ISO-10303-21;
