ISO-10303-21;
HEADER;
FILE_DESCRIPTION (( 'STEP AP203' ),
    '1' );
FILE_NAME ('Web Model 48201_49644.step',
    '2019-01-07T15:23:11',
    ( '' ),
    ( '' ),
    'SwSTEP 2.0',
    'SolidWorks 2016',
    '' );
FILE_SCHEMA (( 'CONFIG_CONTROL_DESIGN' ));
ENDSEC;

DATA;
#1 = DIRECTION ( 'NONE',  ( 1.000000000000000000, 0.0000000000000000000, 0.0000000000000000000 ) ) ;
#2 = DATE_AND_TIME ( #94, #172 ) ;
#3 = ORIENTED_EDGE ( 'NONE', *, *, #70, .T. ) ;
#4 = DIRECTION ( 'NONE',  ( 0.0000000000000000000, 0.0000000000000000000, 1.000000000000000000 ) ) ;
#5 = APPLICATION_CONTEXT ( 'configuration controlled 3d designs of mechanical parts and assemblies' ) ;
#6 = APPROVAL_STATUS ( 'not_yet_approved' ) ;
#7 = PRODUCT_DEFINITION ( 'UNKNOWN', '', #60, #76 ) ;
#8 = DATE_AND_TIME ( #37, #178 ) ;
#9 = ORIENTED_EDGE ( 'NONE', *, *, #218, .F. ) ;
#10 = ORGANIZATION ( 'UNSPECIFIED', 'UNSPECIFIED', '' ) ;
#11 = PERSON ( 'UNSPECIFIED', 'UNSPECIFIED', 'UNSPECIFIED', ('UNSPECIFIED'), ('UNSPECIFIED'), ('UNSPECIFIED') ) ;
#12 = CC_DESIGN_PERSON_AND_ORGANIZATION_ASSIGNMENT ( #97, #75, ( #7 ) ) ;
#13 = VECTOR ( 'NONE', #14, 1000.000000000000000 ) ;
#14 = DIRECTION ( 'NONE',  ( -0.0000000000000000000, -0.0000000000000000000, -1.000000000000000000 ) ) ;
#15 = LINE ( 'NONE', #23, #202 ) ;
#16 = DIRECTION ( 'NONE',  ( 0.0000000000000000000, 0.0000000000000000000, -1.000000000000000000 ) ) ;
#17 = ADVANCED_FACE ( 'NONE', ( #80 ), #34, .T. ) ;
#18 = DIRECTION ( 'NONE',  ( 0.0000000000000000000, 0.0000000000000000000, -1.000000000000000000 ) ) ;
#19 = LINE ( 'NONE', #100, #234 ) ;
#20 = ORIENTED_EDGE ( 'NONE', *, *, #192, .T. ) ;
#21 = EDGE_CURVE ( 'NONE', #211, #158, #28, .T. ) ;
#22 = CARTESIAN_POINT ( 'NONE',  ( -12.50000000000000000, -12.50000000000000000, -1.000000000000000000 ) ) ;
#23 = CARTESIAN_POINT ( 'NONE',  ( 12.50000000000000000, -12.50000000000000000, 1.000000000000000000 ) ) ;
#24 = ORIENTED_EDGE ( 'NONE', *, *, #236, .F. ) ;
#25 = ADVANCED_FACE ( 'NONE', ( #163 ), #213, .F. ) ;
#26 = PLANE ( 'NONE',  #142 ) ;
#27 = APPROVAL_PERSON_ORGANIZATION ( #233, #167, #185 ) ;
#28 = LINE ( 'NONE', #176, #13 ) ;
#29 = VERTEX_POINT ( 'NONE', #69 ) ;
#30 = VECTOR ( 'NONE', #77, 1000.000000000000000 ) ;
#31 = VERTEX_POINT ( 'NONE', #235 ) ;
#32 = CC_DESIGN_PERSON_AND_ORGANIZATION_ASSIGNMENT ( #96, #41, ( #60 ) ) ;
#33 = ORIENTED_EDGE ( 'NONE', *, *, #130, .T. ) ;
#34 = PLANE ( 'NONE',  #121 ) ;
#35 = CARTESIAN_POINT ( 'NONE',  ( 12.50000000000000000, -12.50000000000000000, 1.000000000000000000 ) ) ;
#36 = CC_DESIGN_APPROVAL ( #167, ( #48 ) ) ;
#37 = CALENDAR_DATE ( 2019, 7, 1 ) ;
#38 = ORIENTED_EDGE ( 'NONE', *, *, #223, .F. ) ;
#39 = PLANE ( 'NONE',  #113 ) ;
#40 = CARTESIAN_POINT ( 'NONE',  ( 0.0000000000000000000, 0.0000000000000000000, 0.0000000000000000000 ) ) ;
#41 = PERSON_AND_ORGANIZATION_ROLE ( 'design_supplier' ) ;
#42 = ORIENTED_EDGE ( 'NONE', *, *, #198, .T. ) ;
#43 = APPLICATION_PROTOCOL_DEFINITION ( 'international standard', 'config_control_design', 1994, #5 ) ;
#44 = DIRECTION ( 'NONE',  ( -1.000000000000000000, 0.0000000000000000000, -0.0000000000000000000 ) ) ;
#45 = LOCAL_TIME ( 10, 23, 11.00000000000000000, #134 ) ;
#46 = VECTOR ( 'NONE', #52, 1000.000000000000000 ) ;
#47 = ORIENTED_EDGE ( 'NONE', *, *, #223, .T. ) ;
#48 = SECURITY_CLASSIFICATION ( '', '', #111 ) ;
#49 = VERTEX_POINT ( 'NONE', #214 ) ;
#50 = CARTESIAN_POINT ( 'NONE',  ( -12.50000000000000000, -12.50000000000000000, 1.000000000000000000 ) ) ;
#51 = ADVANCED_FACE ( 'NONE', ( #203 ), #119, .F. ) ;
#52 = DIRECTION ( 'NONE',  ( -1.000000000000000000, -0.0000000000000000000, -0.0000000000000000000 ) ) ;
#53 = PERSON_AND_ORGANIZATION_ROLE ( 'design_owner' ) ;
#54 = PRODUCT_RELATED_PRODUCT_CATEGORY ( 'detail', '', ( #171 ) ) ;
#55 = CLOSED_SHELL ( 'NONE', ( #200, #25, #51, #124, #141, #17 ) ) ;
#56 = CARTESIAN_POINT ( 'NONE',  ( -12.50000000000000000, -12.50000000000000000, 1.000000000000000000 ) ) ;
#57 = DIRECTION ( 'NONE',  ( 1.000000000000000000, 0.0000000000000000000, 0.0000000000000000000 ) ) ;
#58 = DIRECTION ( 'NONE',  ( -0.0000000000000000000, -1.000000000000000000, -0.0000000000000000000 ) ) ;
#59 = LINE ( 'NONE', #104, #89 ) ;
#60 = PRODUCT_DEFINITION_FORMATION_WITH_SPECIFIED_SOURCE ( 'ANY', '', #171, .NOT_KNOWN. ) ;
#61 = PERSON_AND_ORGANIZATION ( #11, #10 ) ;
#62 = VECTOR ( 'NONE', #177, 1000.000000000000000 ) ;
#63 = CC_DESIGN_APPROVAL ( #206, ( #7 ) ) ;
#64 = DATE_AND_TIME ( #99, #210 ) ;
#65 = VECTOR ( 'NONE', #184, 1000.000000000000000 ) ;
#66 = ORIENTED_EDGE ( 'NONE', *, *, #21, .T. ) ;
#67 = UNCERTAINTY_MEASURE_WITH_UNIT (LENGTH_MEASURE( 1.000000000000000100E-005 ), #91, 'distance_accuracy_value', 'NONE');
#68 = ORIENTED_EDGE ( 'NONE', *, *, #21, .F. ) ;
#69 = CARTESIAN_POINT ( 'NONE',  ( 12.50000000000000000, -12.50000000000000000, 1.000000000000000000 ) ) ;
#70 = EDGE_CURVE ( 'NONE', #31, #29, #112, .T. ) ;
#71 = CALENDAR_DATE ( 2019, 7, 1 ) ;
#72 = FACE_OUTER_BOUND ( 'NONE', #180, .T. ) ;
#73 = APPROVAL_STATUS ( 'not_yet_approved' ) ;
#74 = VERTEX_POINT ( 'NONE', #138 ) ;
#75 = PERSON_AND_ORGANIZATION_ROLE ( 'creator' ) ;
#76 = DESIGN_CONTEXT ( 'detailed design', #5, 'design' ) ;
#77 = DIRECTION ( 'NONE',  ( -0.0000000000000000000, -0.0000000000000000000, -1.000000000000000000 ) ) ;
#78 = ORIENTED_EDGE ( 'NONE', *, *, #98, .T. ) ;
#79 = EDGE_CURVE ( 'NONE', #74, #170, #19, .T. ) ;
#80 = FACE_OUTER_BOUND ( 'NONE', #228, .T. ) ;
#81 = DATE_AND_TIME ( #116, #92 ) ;
#82 = ORIENTED_EDGE ( 'NONE', *, *, #98, .F. ) ;
#83 = AXIS2_PLACEMENT_3D ( 'NONE', #140, #174, #18 ) ;
#84 = PERSON_AND_ORGANIZATION ( #11, #10 ) ;
#85 = PERSON_AND_ORGANIZATION ( #11, #10 ) ;
#86 = ORIENTED_EDGE ( 'NONE', *, *, #161, .T. ) ;
#87 = CARTESIAN_POINT ( 'NONE',  ( -12.50000000000000000, -12.50000000000000000, 1.000000000000000000 ) ) ;
#88 = EDGE_CURVE ( 'NONE', #211, #31, #122, .T. ) ;
#89 = VECTOR ( 'NONE', #58, 1000.000000000000000 ) ;
#90 = CARTESIAN_POINT ( 'NONE',  ( -12.50000000000000000, 12.50000000000000000, 1.000000000000000000 ) ) ;
#91 =( LENGTH_UNIT ( ) NAMED_UNIT ( * ) SI_UNIT ( .MILLI., .METRE. ) );
#92 = LOCAL_TIME ( 10, 23, 11.00000000000000000, #129 ) ;
#93 = CC_DESIGN_DATE_AND_TIME_ASSIGNMENT ( #8, #197, ( #7 ) ) ;
#94 = CALENDAR_DATE ( 2019, 7, 1 ) ;
#95 = ORIENTED_EDGE ( 'NONE', *, *, #70, .F. ) ;
#96 = PERSON_AND_ORGANIZATION ( #11, #10 ) ;
#97 = PERSON_AND_ORGANIZATION ( #11, #10 ) ;
#98 = EDGE_CURVE ( 'NONE', #29, #74, #183, .T. ) ;
#99 = CALENDAR_DATE ( 2019, 7, 1 ) ;
#100 = CARTESIAN_POINT ( 'NONE',  ( 12.50000000000000000, 12.50000000000000000, 1.000000000000000000 ) ) ;
#101 = DIRECTION ( 'NONE',  ( 0.0000000000000000000, -1.000000000000000000, 0.0000000000000000000 ) ) ;
#102 = DIRECTION ( 'NONE',  ( 0.0000000000000000000, -0.0000000000000000000, -1.000000000000000000 ) ) ;
#103 = CC_DESIGN_PERSON_AND_ORGANIZATION_ASSIGNMENT ( #84, #131, ( #48 ) ) ;
#104 = CARTESIAN_POINT ( 'NONE',  ( -12.50000000000000000, -12.50000000000000000, -1.000000000000000000 ) ) ;
#105 = LINE ( 'NONE', #90, #186 ) ;
#106 = DIRECTION ( 'NONE',  ( 0.0000000000000000000, 1.000000000000000000, 0.0000000000000000000 ) ) ;
#107 = DIRECTION ( 'NONE',  ( -1.000000000000000000, -0.0000000000000000000, -0.0000000000000000000 ) ) ;
#108 = CARTESIAN_POINT ( 'NONE',  ( 12.50000000000000000, -12.50000000000000000, -1.000000000000000000 ) ) ;
#109 = COORDINATED_UNIVERSAL_TIME_OFFSET ( 5, 0, .BEHIND. ) ;
#110 = LINE ( 'NONE', #56, #30 ) ;
#111 = SECURITY_CLASSIFICATION_LEVEL ( 'unclassified' ) ;
#112 = LINE ( 'NONE', #50, #196 ) ;
#113 = AXIS2_PLACEMENT_3D ( 'NONE', #166, #201, #44 ) ;
#114 = EDGE_LOOP ( 'NONE', ( #47, #68, #24, #222 ) ) ;
#115 = ADVANCED_BREP_SHAPE_REPRESENTATION ( 'Web Model 48201_49644', ( #190, #229 ), #189 ) ;
#116 = CALENDAR_DATE ( 2019, 7, 1 ) ;
#117 = ORIENTED_EDGE ( 'NONE', *, *, #161, .F. ) ;
#118 = ORIENTED_EDGE ( 'NONE', *, *, #192, .F. ) ;
#119 = PLANE ( 'NONE',  #83 ) ;
#120 = DIRECTION ( 'NONE',  ( -0.0000000000000000000, -0.0000000000000000000, -1.000000000000000000 ) ) ;
#121 = AXIS2_PLACEMENT_3D ( 'NONE', #157, #16, #159 ) ;
#122 = LINE ( 'NONE', #160, #154 ) ;
#123 = DIRECTION ( 'NONE',  ( -1.000000000000000000, 0.0000000000000000000, 0.0000000000000000000 ) ) ;
#124 = ADVANCED_FACE ( 'NONE', ( #72 ), #26, .F. ) ;
#125 = APPROVAL_ROLE ( '' ) ;
#126 = EDGE_LOOP ( 'NONE', ( #205, #204, #82, #42 ) ) ;
#127 = DIRECTION ( 'NONE',  ( 0.0000000000000000000, -0.0000000000000000000, 1.000000000000000000 ) ) ;
#128 = DIRECTION ( 'NONE',  ( -0.0000000000000000000, -0.0000000000000000000, -1.000000000000000000 ) ) ;
#129 = COORDINATED_UNIVERSAL_TIME_OFFSET ( 5, 0, .BEHIND. ) ;
#130 = EDGE_CURVE ( 'NONE', #31, #173, #110, .T. ) ;
#131 = PERSON_AND_ORGANIZATION_ROLE ( 'classification_officer' ) ;
#132 = LINE ( 'NONE', #217, #232 ) ;
#133 = CC_DESIGN_DATE_AND_TIME_ASSIGNMENT ( #224, #152, ( #48 ) ) ;
#134 = COORDINATED_UNIVERSAL_TIME_OFFSET ( 5, 0, .BEHIND. ) ;
#135 = EDGE_LOOP ( 'NONE', ( #20, #188, #226, #66 ) ) ;
#136 = CC_DESIGN_SECURITY_CLASSIFICATION ( #48, ( #60 ) ) ;
#137 = PERSON_AND_ORGANIZATION ( #11, #10 ) ;
#138 = CARTESIAN_POINT ( 'NONE',  ( 12.50000000000000000, 12.50000000000000000, 1.000000000000000000 ) ) ;
#139 = FACE_OUTER_BOUND ( 'NONE', #216, .T. ) ;
#140 = CARTESIAN_POINT ( 'NONE',  ( -12.50000000000000000, -12.50000000000000000, 1.000000000000000000 ) ) ;
#141 = ADVANCED_FACE ( 'NONE', ( #139 ), #39, .F. ) ;
#142 = AXIS2_PLACEMENT_3D ( 'NONE', #87, #106, #127 ) ;
#143 = APPLICATION_CONTEXT ( 'configuration controlled 3d designs of mechanical parts and assemblies' ) ;
#144 = APPROVAL_PERSON_ORGANIZATION ( #193, #209, #125 ) ;
#145 = APPROVAL_STATUS ( 'not_yet_approved' ) ;
#146 = PERSON_AND_ORGANIZATION_ROLE ( 'creator' ) ;
#147 = DIRECTION ( 'NONE',  ( 0.0000000000000000000, 0.0000000000000000000, 1.000000000000000000 ) ) ;
#148 = PLANE ( 'NONE',  #155 ) ;
#149 = APPROVAL_DATE_TIME ( #81, #206 ) ;
#150 = ORIENTED_EDGE ( 'NONE', *, *, #198, .F. ) ;
#151 = AXIS2_PLACEMENT_3D ( 'NONE', #212, #101, #102 ) ;
#152 = DATE_TIME_ROLE ( 'classification_date' ) ;
#153 = APPROVAL_DATE_TIME ( #64, #167 ) ;
#154 = VECTOR ( 'NONE', #179, 1000.000000000000000 ) ;
#155 = AXIS2_PLACEMENT_3D ( 'NONE', #237, #123, #147 ) ;
#156 = LINE ( 'NONE', #108, #65 ) ;
#157 = CARTESIAN_POINT ( 'NONE',  ( 0.0000000000000000000, 0.0000000000000000000, -1.000000000000000000 ) ) ;
#158 = VERTEX_POINT ( 'NONE', #165 ) ;
#159 = DIRECTION ( 'NONE',  ( -1.000000000000000000, 0.0000000000000000000, -0.0000000000000000000 ) ) ;
#160 = CARTESIAN_POINT ( 'NONE',  ( -12.50000000000000000, -12.50000000000000000, 1.000000000000000000 ) ) ;
#161 = EDGE_CURVE ( 'NONE', #173, #49, #132, .T. ) ;
#162 = DIRECTION ( 'NONE',  ( 1.000000000000000000, 0.0000000000000000000, 0.0000000000000000000 ) ) ;
#163 = FACE_OUTER_BOUND ( 'NONE', #114, .T. ) ;
#164 = APPLICATION_PROTOCOL_DEFINITION ( 'international standard', 'config_control_design', 1994, #143 ) ;
#165 = CARTESIAN_POINT ( 'NONE',  ( -12.50000000000000000, 12.50000000000000000, -1.000000000000000000 ) ) ;
#166 = CARTESIAN_POINT ( 'NONE',  ( 0.0000000000000000000, 0.0000000000000000000, 1.000000000000000000 ) ) ;
#167 = APPROVAL ( #6, 'UNSPECIFIED' ) ;
#168 = PRODUCT_DEFINITION_SHAPE ( 'NONE', 'NONE',  #7 ) ;
#169 = LINE ( 'NONE', #195, #46 ) ;
#170 = VERTEX_POINT ( 'NONE', #199 ) ;
#171 = PRODUCT ( 'Web Model 48201_49644', 'Web Model 48201_49644', '', ( #220 ) ) ;
#172 = LOCAL_TIME ( 10, 23, 11.00000000000000000, #225 ) ;
#173 = VERTEX_POINT ( 'NONE', #22 ) ;
#174 = DIRECTION ( 'NONE',  ( 1.000000000000000000, 0.0000000000000000000, 0.0000000000000000000 ) ) ;
#175 = CC_DESIGN_PERSON_AND_ORGANIZATION_ASSIGNMENT ( #61, #53, ( #171 ) ) ;
#176 = CARTESIAN_POINT ( 'NONE',  ( -12.50000000000000000, 12.50000000000000000, 1.000000000000000000 ) ) ;
#177 = DIRECTION ( 'NONE',  ( 0.0000000000000000000, 1.000000000000000000, 0.0000000000000000000 ) ) ;
#178 = LOCAL_TIME ( 10, 23, 11.00000000000000000, #230 ) ;
#179 = DIRECTION ( 'NONE',  ( -0.0000000000000000000, -1.000000000000000000, -0.0000000000000000000 ) ) ;
#180 = EDGE_LOOP ( 'NONE', ( #86, #150, #95, #33 ) ) ;
#181 =( NAMED_UNIT ( * ) PLANE_ANGLE_UNIT ( ) SI_UNIT ( $, .RADIAN. ) );
#182 = APPROVAL_ROLE ( '' ) ;
#183 = LINE ( 'NONE', #35, #62 ) ;
#184 = DIRECTION ( 'NONE',  ( 0.0000000000000000000, 1.000000000000000000, 0.0000000000000000000 ) ) ;
#185 = APPROVAL_ROLE ( '' ) ;
#186 = VECTOR ( 'NONE', #107, 1000.000000000000000 ) ;
#187 = APPROVAL_DATE_TIME ( #2, #209 ) ;
#188 = ORIENTED_EDGE ( 'NONE', *, *, #130, .F. ) ;
#189 =( GEOMETRIC_REPRESENTATION_CONTEXT ( 3 ) GLOBAL_UNCERTAINTY_ASSIGNED_CONTEXT ( ( #67 ) ) GLOBAL_UNIT_ASSIGNED_CONTEXT ( ( #91, #181, #219 ) ) REPRESENTATION_CONTEXT ( 'NONE', 'WORKASPACE' ) );
#190 = MANIFOLD_SOLID_BREP ( 'Boss-Extrude1', #55 ) ;
#191 = CC_DESIGN_APPROVAL ( #209, ( #60 ) ) ;
#192 = EDGE_CURVE ( 'NONE', #158, #173, #59, .T. ) ;
#193 = PERSON_AND_ORGANIZATION ( #11, #10 ) ;
#194 = APPROVAL_PERSON_ORGANIZATION ( #85, #206, #182 ) ;
#195 = CARTESIAN_POINT ( 'NONE',  ( -12.50000000000000000, 12.50000000000000000, -1.000000000000000000 ) ) ;
#196 = VECTOR ( 'NONE', #162, 1000.000000000000000 ) ;
#197 = DATE_TIME_ROLE ( 'creation_date' ) ;
#198 = EDGE_CURVE ( 'NONE', #29, #49, #15, .T. ) ;
#199 = CARTESIAN_POINT ( 'NONE',  ( 12.50000000000000000, 12.50000000000000000, -1.000000000000000000 ) ) ;
#200 = ADVANCED_FACE ( 'NONE', ( #207 ), #148, .F. ) ;
#201 = DIRECTION ( 'NONE',  ( 0.0000000000000000000, 0.0000000000000000000, -1.000000000000000000 ) ) ;
#202 = VECTOR ( 'NONE', #128, 1000.000000000000000 ) ;
#203 = FACE_OUTER_BOUND ( 'NONE', #135, .T. ) ;
#204 = ORIENTED_EDGE ( 'NONE', *, *, #79, .F. ) ;
#205 = ORIENTED_EDGE ( 'NONE', *, *, #218, .T. ) ;
#206 = APPROVAL ( #73, 'UNSPECIFIED' ) ;
#207 = FACE_OUTER_BOUND ( 'NONE', #126, .T. ) ;
#208 = ORIENTED_EDGE ( 'NONE', *, *, #88, .T. ) ;
#209 = APPROVAL ( #145, 'UNSPECIFIED' ) ;
#210 = LOCAL_TIME ( 10, 23, 11.00000000000000000, #109 ) ;
#211 = VERTEX_POINT ( 'NONE', #221 ) ;
#212 = CARTESIAN_POINT ( 'NONE',  ( -12.50000000000000000, 12.50000000000000000, 1.000000000000000000 ) ) ;
#213 = PLANE ( 'NONE',  #151 ) ;
#214 = CARTESIAN_POINT ( 'NONE',  ( 12.50000000000000000, -12.50000000000000000, -1.000000000000000000 ) ) ;
#215 = SHAPE_DEFINITION_REPRESENTATION ( #168, #115 ) ;
#216 = EDGE_LOOP ( 'NONE', ( #78, #231, #208, #3 ) ) ;
#217 = CARTESIAN_POINT ( 'NONE',  ( -12.50000000000000000, -12.50000000000000000, -1.000000000000000000 ) ) ;
#218 = EDGE_CURVE ( 'NONE', #49, #170, #156, .T. ) ;
#219 =( NAMED_UNIT ( * ) SI_UNIT ( $, .STERADIAN. ) SOLID_ANGLE_UNIT ( ) );
#220 = MECHANICAL_CONTEXT ( 'NONE', #143, 'mechanical' ) ;
#221 = CARTESIAN_POINT ( 'NONE',  ( -12.50000000000000000, 12.50000000000000000, 1.000000000000000000 ) ) ;
#222 = ORIENTED_EDGE ( 'NONE', *, *, #79, .T. ) ;
#223 = EDGE_CURVE ( 'NONE', #170, #158, #169, .T. ) ;
#224 = DATE_AND_TIME ( #71, #45 ) ;
#225 = COORDINATED_UNIVERSAL_TIME_OFFSET ( 5, 0, .BEHIND. ) ;
#226 = ORIENTED_EDGE ( 'NONE', *, *, #88, .F. ) ;
#227 = CC_DESIGN_PERSON_AND_ORGANIZATION_ASSIGNMENT ( #137, #146, ( #60 ) ) ;
#228 = EDGE_LOOP ( 'NONE', ( #9, #117, #118, #38 ) ) ;
#229 = AXIS2_PLACEMENT_3D ( 'NONE', #40, #4, #57 ) ;
#230 = COORDINATED_UNIVERSAL_TIME_OFFSET ( 5, 0, .BEHIND. ) ;
#231 = ORIENTED_EDGE ( 'NONE', *, *, #236, .T. ) ;
#232 = VECTOR ( 'NONE', #1, 1000.000000000000000 ) ;
#233 = PERSON_AND_ORGANIZATION ( #11, #10 ) ;
#234 = VECTOR ( 'NONE', #120, 1000.000000000000000 ) ;
#235 = CARTESIAN_POINT ( 'NONE',  ( -12.50000000000000000, -12.50000000000000000, 1.000000000000000000 ) ) ;
#236 = EDGE_CURVE ( 'NONE', #74, #211, #105, .T. ) ;
#237 = CARTESIAN_POINT ( 'NONE',  ( 12.50000000000000000, -12.50000000000000000, 1.000000000000000000 ) ) ;
ENDSEC;
END-ISO-10303-21;
