ISO-10303-21;
HEADER;
FILE_DESCRIPTION (( 'STEP AP203' ),
    '1' );
FILE_NAME ('36935_36935.step',
    '2017-08-23T20:35:40',
    ( '' ),
    ( '' ),
    'SwSTEP 2.0',
    'SolidWorks 2016',
    '' );
FILE_SCHEMA (( 'CONFIG_CONTROL_DESIGN' ));
ENDSEC;

DATA;
#1 = CARTESIAN_POINT ( 'NONE',  ( 0.0000000000000000000, 0.0000000000000000000, 1.500000000000000000 ) ) ;
#2 = AXIS2_PLACEMENT_3D ( 'NONE', #154, #54, #46 ) ;
#3 = DIRECTION ( 'NONE',  ( 1.000000000000000000, 0.0000000000000000000, 0.0000000000000000000 ) ) ;
#4 = ORIENTED_EDGE ( 'NONE', *, *, #168, .T. ) ;
#5 = APPLICATION_CONTEXT ( 'configuration controlled 3d designs of mechanical parts and assemblies' ) ;
#6 = PERSON_AND_ORGANIZATION_ROLE ( 'creator' ) ;
#7 = LOCAL_TIME ( 16, 35, 40.00000000000000000, #12 ) ;
#8 = APPROVAL_STATUS ( 'not_yet_approved' ) ;
#9 = PERSON_AND_ORGANIZATION ( #136, #127 ) ;
#10 = ORIENTED_EDGE ( 'NONE', *, *, #65, .F. ) ;
#11 = CC_DESIGN_APPROVAL ( #129, ( #27 ) ) ;
#12 = COORDINATED_UNIVERSAL_TIME_OFFSET ( 5, 0, .BEHIND. ) ;
#13 = CARTESIAN_POINT ( 'NONE',  ( 0.0000000000000000000, 0.0000000000000000000, 1.500000000000000000 ) ) ;
#14 = CALENDAR_DATE ( 2017, 23, 8 ) ;
#15 = PERSON_AND_ORGANIZATION_ROLE ( 'design_supplier' ) ;
#16 = UNCERTAINTY_MEASURE_WITH_UNIT (LENGTH_MEASURE( 1.000000000000000100E-005 ), #147, 'distance_accuracy_value', 'NONE');
#17 = DATE_AND_TIME ( #78, #7 ) ;
#18 = CC_DESIGN_APPROVAL ( #48, ( #40 ) ) ;
#19 = DATE_AND_TIME ( #148, #162 ) ;
#20 =( GEOMETRIC_REPRESENTATION_CONTEXT ( 3 ) GLOBAL_UNCERTAINTY_ASSIGNED_CONTEXT ( ( #16 ) ) GLOBAL_UNIT_ASSIGNED_CONTEXT ( ( #147, #117, #156 ) ) REPRESENTATION_CONTEXT ( 'NONE', 'WORKASPACE' ) );
#21 = LOCAL_TIME ( 16, 35, 40.00000000000000000, #22 ) ;
#22 = COORDINATED_UNIVERSAL_TIME_OFFSET ( 5, 0, .BEHIND. ) ;
#23 = EDGE_LOOP ( 'NONE', ( #30, #146 ) ) ;
#24 = AXIS2_PLACEMENT_3D ( 'NONE', #131, #74, #143 ) ;
#25 = LINE ( 'NONE', #110, #169 ) ;
#26 = DIRECTION ( 'NONE',  ( -1.000000000000000000, 0.0000000000000000000, 0.0000000000000000000 ) ) ;
#27 = SECURITY_CLASSIFICATION ( '', '', #172 ) ;
#28 = DIRECTION ( 'NONE',  ( 0.0000000000000000000, 0.0000000000000000000, 1.000000000000000000 ) ) ;
#29 = DIRECTION ( 'NONE',  ( 1.000000000000000000, 0.0000000000000000000, -0.0000000000000000000 ) ) ;
#30 = ORIENTED_EDGE ( 'NONE', *, *, #61, .T. ) ;
#31 = MECHANICAL_CONTEXT ( 'NONE', #144, 'mechanical' ) ;
#32 = CARTESIAN_POINT ( 'NONE',  ( 0.0000000000000000000, 0.0000000000000000000, -1.500000000000000000 ) ) ;
#33 = PERSON_AND_ORGANIZATION ( #136, #127 ) ;
#34 = DIRECTION ( 'NONE',  ( 1.000000000000000000, 0.0000000000000000000, 0.0000000000000000000 ) ) ;
#35 = ORIENTED_EDGE ( 'NONE', *, *, #77, .F. ) ;
#36 = COORDINATED_UNIVERSAL_TIME_OFFSET ( 5, 0, .BEHIND. ) ;
#37 = CIRCLE ( 'NONE', #153, 37.49999999999999300 ) ;
#38 = EDGE_LOOP ( 'NONE', ( #10, #155 ) ) ;
#39 = DESIGN_CONTEXT ( 'detailed design', #5, 'design' ) ;
#40 = PRODUCT_DEFINITION ( 'UNKNOWN', '', #92, #39 ) ;
#41 = APPROVAL_DATE_TIME ( #43, #48 ) ;
#42 = FACE_OUTER_BOUND ( 'NONE', #38, .T. ) ;
#43 = DATE_AND_TIME ( #14, #116 ) ;
#44 = CC_DESIGN_PERSON_AND_ORGANIZATION_ASSIGNMENT ( #56, #130, ( #27 ) ) ;
#45 = DATE_TIME_ROLE ( 'classification_date' ) ;
#46 = DIRECTION ( 'NONE',  ( -1.000000000000000000, 0.0000000000000000000, 0.0000000000000000000 ) ) ;
#47 = PERSON_AND_ORGANIZATION_ROLE ( 'creator' ) ;
#48 = APPROVAL ( #69, 'UNSPECIFIED' ) ;
#49 = ORIENTED_EDGE ( 'NONE', *, *, #77, .T. ) ;
#50 = CC_DESIGN_APPROVAL ( #122, ( #92 ) ) ;
#51 = LOCAL_TIME ( 16, 35, 40.00000000000000000, #36 ) ;
#52 = VECTOR ( 'NONE', #114, 1000.000000000000000 ) ;
#53 = PERSON_AND_ORGANIZATION ( #136, #127 ) ;
#54 = DIRECTION ( 'NONE',  ( -0.0000000000000000000, -0.0000000000000000000, -1.000000000000000000 ) ) ;
#55 = APPLICATION_PROTOCOL_DEFINITION ( 'international standard', 'config_control_design', 1994, #144 ) ;
#56 = PERSON_AND_ORGANIZATION ( #136, #127 ) ;
#57 = CC_DESIGN_PERSON_AND_ORGANIZATION_ASSIGNMENT ( #151, #103, ( #98 ) ) ;
#58 = VERTEX_POINT ( 'NONE', #95 ) ;
#59 = DATE_AND_TIME ( #157, #51 ) ;
#60 = ORIENTED_EDGE ( 'NONE', *, *, #61, .F. ) ;
#61 = EDGE_CURVE ( 'NONE', #88, #141, #66, .T. ) ;
#62 = ORIENTED_EDGE ( 'NONE', *, *, #70, .F. ) ;
#63 = CARTESIAN_POINT ( 'NONE',  ( 0.0000000000000000000, 0.0000000000000000000, -1.500000000000000000 ) ) ;
#64 = ADVANCED_FACE ( 'NONE', ( #42 ), #126, .F. ) ;
#65 = EDGE_CURVE ( 'NONE', #58, #159, #137, .T. ) ;
#66 = CIRCLE ( 'NONE', #112, 37.49999999999999300 ) ;
#67 = DIRECTION ( 'NONE',  ( 0.0000000000000000000, 0.0000000000000000000, 1.000000000000000000 ) ) ;
#68 = PLANE ( 'NONE',  #174 ) ;
#69 = APPROVAL_STATUS ( 'not_yet_approved' ) ;
#70 = EDGE_CURVE ( 'NONE', #141, #88, #37, .T. ) ;
#71 = DIRECTION ( 'NONE',  ( 0.0000000000000000000, 0.0000000000000000000, 1.000000000000000000 ) ) ;
#72 = CARTESIAN_POINT ( 'NONE',  ( 37.49999999999999300, 4.592425496802573600E-015, -1.500000000000000000 ) ) ;
#73 = APPROVAL_DATE_TIME ( #17, #122 ) ;
#74 = DIRECTION ( 'NONE',  ( 0.0000000000000000000, 0.0000000000000000000, 1.000000000000000000 ) ) ;
#75 = ORIENTED_EDGE ( 'NONE', *, *, #86, .F. ) ;
#76 = PRODUCT_RELATED_PRODUCT_CATEGORY ( 'detail', '', ( #98 ) ) ;
#77 = EDGE_CURVE ( 'NONE', #141, #159, #25, .T. ) ;
#78 = CALENDAR_DATE ( 2017, 23, 8 ) ;
#79 = CC_DESIGN_PERSON_AND_ORGANIZATION_ASSIGNMENT ( #139, #47, ( #40 ) ) ;
#80 = DIRECTION ( 'NONE',  ( -0.0000000000000000000, -0.0000000000000000000, -1.000000000000000000 ) ) ;
#81 = ADVANCED_FACE ( 'NONE', ( #165 ), #106, .T. ) ;
#82 = CLOSED_SHELL ( 'NONE', ( #81, #108, #125, #64 ) ) ;
#83 = APPROVAL_ROLE ( '' ) ;
#84 = DATE_TIME_ROLE ( 'creation_date' ) ;
#85 = APPROVAL_DATE_TIME ( #19, #129 ) ;
#86 = EDGE_CURVE ( 'NONE', #88, #58, #93, .T. ) ;
#87 = AXIS2_PLACEMENT_3D ( 'NONE', #109, #166, #99 ) ;
#88 = VERTEX_POINT ( 'NONE', #164 ) ;
#89 = CYLINDRICAL_SURFACE ( 'NONE', #2, 37.49999999999999300 ) ;
#90 = ADVANCED_BREP_SHAPE_REPRESENTATION ( '36935_36935', ( #134, #24 ), #20 ) ;
#91 = CALENDAR_DATE ( 2017, 23, 8 ) ;
#92 = PRODUCT_DEFINITION_FORMATION_WITH_SPECIFIED_SOURCE ( 'ANY', '', #98, .NOT_KNOWN. ) ;
#93 = LINE ( 'NONE', #167, #52 ) ;
#94 = DIRECTION ( 'NONE',  ( -0.0000000000000000000, -0.0000000000000000000, -1.000000000000000000 ) ) ;
#95 = CARTESIAN_POINT ( 'NONE',  ( -37.49999999999999300, 0.0000000000000000000, -1.500000000000000000 ) ) ;
#96 = PERSON_AND_ORGANIZATION ( #136, #127 ) ;
#97 = AXIS2_PLACEMENT_3D ( 'NONE', #32, #101, #34 ) ;
#98 = PRODUCT ( '36935_36935', '36935_36935', '', ( #31 ) ) ;
#99 = DIRECTION ( 'NONE',  ( 1.000000000000000000, 0.0000000000000000000, 0.0000000000000000000 ) ) ;
#100 = EDGE_LOOP ( 'NONE', ( #35, #60, #118, #150 ) ) ;
#101 = DIRECTION ( 'NONE',  ( 0.0000000000000000000, 0.0000000000000000000, 1.000000000000000000 ) ) ;
#102 = APPROVAL_ROLE ( '' ) ;
#103 = PERSON_AND_ORGANIZATION_ROLE ( 'design_owner' ) ;
#104 = COORDINATED_UNIVERSAL_TIME_OFFSET ( 5, 0, .BEHIND. ) ;
#105 = CC_DESIGN_DATE_AND_TIME_ASSIGNMENT ( #59, #45, ( #27 ) ) ;
#106 = CYLINDRICAL_SURFACE ( 'NONE', #107, 37.49999999999999300 ) ;
#107 = AXIS2_PLACEMENT_3D ( 'NONE', #1, #94, #26 ) ;
#108 = ADVANCED_FACE ( 'NONE', ( #152 ), #89, .T. ) ;
#109 = CARTESIAN_POINT ( 'NONE',  ( 0.0000000000000000000, 0.0000000000000000000, -1.500000000000000000 ) ) ;
#110 = CARTESIAN_POINT ( 'NONE',  ( 37.49999999999999300, 4.592425496802573600E-015, 1.500000000000000000 ) ) ;
#111 = EDGE_LOOP ( 'NONE', ( #62, #49, #4, #75 ) ) ;
#112 = AXIS2_PLACEMENT_3D ( 'NONE', #13, #67, #3 ) ;
#113 = CARTESIAN_POINT ( 'NONE',  ( 37.49999999999999300, 4.592425496802573600E-015, 1.500000000000000000 ) ) ;
#114 = DIRECTION ( 'NONE',  ( -0.0000000000000000000, -0.0000000000000000000, -1.000000000000000000 ) ) ;
#115 = PRODUCT_DEFINITION_SHAPE ( 'NONE', 'NONE',  #40 ) ;
#116 = LOCAL_TIME ( 16, 35, 40.00000000000000000, #104 ) ;
#117 =( NAMED_UNIT ( * ) PLANE_ANGLE_UNIT ( ) SI_UNIT ( $, .RADIAN. ) );
#118 = ORIENTED_EDGE ( 'NONE', *, *, #86, .T. ) ;
#119 = APPROVAL_STATUS ( 'not_yet_approved' ) ;
#120 = CC_DESIGN_PERSON_AND_ORGANIZATION_ASSIGNMENT ( #9, #15, ( #92 ) ) ;
#121 = SHAPE_DEFINITION_REPRESENTATION ( #115, #90 ) ;
#122 = APPROVAL ( #8, 'UNSPECIFIED' ) ;
#123 = AXIS2_PLACEMENT_3D ( 'NONE', #63, #28, #128 ) ;
#124 = APPROVAL_PERSON_ORGANIZATION ( #53, #129, #142 ) ;
#125 = ADVANCED_FACE ( 'NONE', ( #145 ), #68, .T. ) ;
#126 = PLANE ( 'NONE',  #123 ) ;
#127 = ORGANIZATION ( 'UNSPECIFIED', 'UNSPECIFIED', '' ) ;
#128 = DIRECTION ( 'NONE',  ( 1.000000000000000000, 0.0000000000000000000, -0.0000000000000000000 ) ) ;
#129 = APPROVAL ( #119, 'UNSPECIFIED' ) ;
#130 = PERSON_AND_ORGANIZATION_ROLE ( 'classification_officer' ) ;
#131 = CARTESIAN_POINT ( 'NONE',  ( 0.0000000000000000000, 0.0000000000000000000, 0.0000000000000000000 ) ) ;
#132 = CARTESIAN_POINT ( 'NONE',  ( 0.0000000000000000000, 0.0000000000000000000, 1.500000000000000000 ) ) ;
#133 = CC_DESIGN_SECURITY_CLASSIFICATION ( #27, ( #92 ) ) ;
#134 = MANIFOLD_SOLID_BREP ( 'Boss-Extrude1', #82 ) ;
#135 = APPROVAL_PERSON_ORGANIZATION ( #175, #48, #83 ) ;
#136 = PERSON ( 'UNSPECIFIED', 'UNSPECIFIED', 'UNSPECIFIED', ('UNSPECIFIED'), ('UNSPECIFIED'), ('UNSPECIFIED') ) ;
#137 = CIRCLE ( 'NONE', #87, 37.49999999999999300 ) ;
#138 = CARTESIAN_POINT ( 'NONE',  ( 0.0000000000000000000, 0.0000000000000000000, 1.500000000000000000 ) ) ;
#139 = PERSON_AND_ORGANIZATION ( #136, #127 ) ;
#140 = DIRECTION ( 'NONE',  ( 0.0000000000000000000, 0.0000000000000000000, 1.000000000000000000 ) ) ;
#141 = VERTEX_POINT ( 'NONE', #113 ) ;
#142 = APPROVAL_ROLE ( '' ) ;
#143 = DIRECTION ( 'NONE',  ( 1.000000000000000000, 0.0000000000000000000, 0.0000000000000000000 ) ) ;
#144 = APPLICATION_CONTEXT ( 'configuration controlled 3d designs of mechanical parts and assemblies' ) ;
#145 = FACE_OUTER_BOUND ( 'NONE', #23, .T. ) ;
#146 = ORIENTED_EDGE ( 'NONE', *, *, #70, .T. ) ;
#147 =( LENGTH_UNIT ( ) NAMED_UNIT ( * ) SI_UNIT ( .MILLI., .METRE. ) );
#148 = CALENDAR_DATE ( 2017, 23, 8 ) ;
#149 = CC_DESIGN_DATE_AND_TIME_ASSIGNMENT ( #160, #84, ( #40 ) ) ;
#150 = ORIENTED_EDGE ( 'NONE', *, *, #65, .T. ) ;
#151 = PERSON_AND_ORGANIZATION ( #136, #127 ) ;
#152 = FACE_OUTER_BOUND ( 'NONE', #100, .T. ) ;
#153 = AXIS2_PLACEMENT_3D ( 'NONE', #138, #140, #163 ) ;
#154 = CARTESIAN_POINT ( 'NONE',  ( 0.0000000000000000000, 0.0000000000000000000, 1.500000000000000000 ) ) ;
#155 = ORIENTED_EDGE ( 'NONE', *, *, #168, .F. ) ;
#156 =( NAMED_UNIT ( * ) SI_UNIT ( $, .STERADIAN. ) SOLID_ANGLE_UNIT ( ) );
#157 = CALENDAR_DATE ( 2017, 23, 8 ) ;
#158 = APPROVAL_PERSON_ORGANIZATION ( #33, #122, #102 ) ;
#159 = VERTEX_POINT ( 'NONE', #72 ) ;
#160 = DATE_AND_TIME ( #91, #21 ) ;
#161 = CIRCLE ( 'NONE', #97, 37.49999999999999300 ) ;
#162 = LOCAL_TIME ( 16, 35, 40.00000000000000000, #173 ) ;
#163 = DIRECTION ( 'NONE',  ( 1.000000000000000000, 0.0000000000000000000, 0.0000000000000000000 ) ) ;
#164 = CARTESIAN_POINT ( 'NONE',  ( -37.49999999999999300, 0.0000000000000000000, 1.500000000000000000 ) ) ;
#165 = FACE_OUTER_BOUND ( 'NONE', #111, .T. ) ;
#166 = DIRECTION ( 'NONE',  ( 0.0000000000000000000, 0.0000000000000000000, 1.000000000000000000 ) ) ;
#167 = CARTESIAN_POINT ( 'NONE',  ( -37.49999999999999300, 0.0000000000000000000, 1.500000000000000000 ) ) ;
#168 = EDGE_CURVE ( 'NONE', #159, #58, #161, .T. ) ;
#169 = VECTOR ( 'NONE', #80, 1000.000000000000000 ) ;
#170 = APPLICATION_PROTOCOL_DEFINITION ( 'international standard', 'config_control_design', 1994, #5 ) ;
#171 = CC_DESIGN_PERSON_AND_ORGANIZATION_ASSIGNMENT ( #96, #6, ( #92 ) ) ;
#172 = SECURITY_CLASSIFICATION_LEVEL ( 'unclassified' ) ;
#173 = COORDINATED_UNIVERSAL_TIME_OFFSET ( 5, 0, .BEHIND. ) ;
#174 = AXIS2_PLACEMENT_3D ( 'NONE', #132, #71, #29 ) ;
#175 = PERSON_AND_ORGANIZATION ( #136, #127 ) ;
ENDSEC;
END-ISO-10303-21;
