ISO-10303-21;
HEADER;
FILE_DESCRIPTION (( 'STEP AP203' ),
    '1' );
FILE_NAME ('Web Model 45571_45571.step',
    '2017-04-10T16:42:33',
    ( '' ),
    ( '' ),
    'SwSTEP 2.0',
    'SolidWorks 2016',
    '' );
FILE_SCHEMA (( 'CONFIG_CONTROL_DESIGN' ));
ENDSEC;

DATA;
#1 = APPROVAL_ROLE ( '' ) ;
#2 = APPROVAL_PERSON_ORGANIZATION ( #11, #6, #122 ) ;
#3 = APPROVAL_ROLE ( '' ) ;
#4 = ORIENTED_EDGE ( 'NONE', *, *, #101, .F. ) ;
#5 = PERSON_AND_ORGANIZATION ( #164, #167 ) ;
#6 = APPROVAL ( #159, 'UNSPECIFIED' ) ;
#7 = DIRECTION ( 'NONE',  ( 0.0000000000000000000, 0.0000000000000000000, 1.000000000000000000 ) ) ;
#8 = CC_DESIGN_PERSON_AND_ORGANIZATION_ASSIGNMENT ( #40, #45, ( #175 ) ) ;
#9 = CC_DESIGN_DATE_AND_TIME_ASSIGNMENT ( #97, #66, ( #140 ) ) ;
#10 = CARTESIAN_POINT ( 'NONE',  ( 20.00000000000000000, 2.449293598294706500E-015, 0.0000000000000000000 ) ) ;
#11 = PERSON_AND_ORGANIZATION ( #164, #167 ) ;
#12 = DIRECTION ( 'NONE',  ( 1.000000000000000000, 0.0000000000000000000, -0.0000000000000000000 ) ) ;
#13 = CYLINDRICAL_SURFACE ( 'NONE', #57, 20.00000000000000000 ) ;
#14 = PRODUCT ( 'Web Model 45571_45571', 'Web Model 45571_45571', '', ( #35 ) ) ;
#15 = ADVANCED_FACE ( 'NONE', ( #50 ), #13, .T. ) ;
#16 = ORIENTED_EDGE ( 'NONE', *, *, #85, .T. ) ;
#17 = PERSON_AND_ORGANIZATION_ROLE ( 'design_owner' ) ;
#18 = CC_DESIGN_DATE_AND_TIME_ASSIGNMENT ( #155, #161, ( #87 ) ) ;
#19 = APPLICATION_PROTOCOL_DEFINITION ( 'international standard', 'config_control_design', 1994, #106 ) ;
#20 = DATE_AND_TIME ( #172, #72 ) ;
#21 = CIRCLE ( 'NONE', #32, 20.00000000000000000 ) ;
#22 = CARTESIAN_POINT ( 'NONE',  ( 0.0000000000000000000, 0.0000000000000000000, 3.000000000000000000 ) ) ;
#23 = AXIS2_PLACEMENT_3D ( 'NONE', #84, #67, #110 ) ;
#24 = COORDINATED_UNIVERSAL_TIME_OFFSET ( 5, 0, .BEHIND. ) ;
#25 = CARTESIAN_POINT ( 'NONE',  ( 20.00000000000000000, 2.449293598294706500E-015, 3.000000000000000000 ) ) ;
#26 = DIRECTION ( 'NONE',  ( 1.000000000000000000, 0.0000000000000000000, 0.0000000000000000000 ) ) ;
#27 = EDGE_CURVE ( 'NONE', #75, #39, #115, .T. ) ;
#28 = DATE_AND_TIME ( #152, #33 ) ;
#29 = ADVANCED_FACE ( 'NONE', ( #160 ), #138, .T. ) ;
#30 = PERSON_AND_ORGANIZATION ( #164, #167 ) ;
#31 = ORIENTED_EDGE ( 'NONE', *, *, #90, .F. ) ;
#32 = AXIS2_PLACEMENT_3D ( 'NONE', #173, #7, #130 ) ;
#33 = LOCAL_TIME ( 12, 42, 33.00000000000000000, #82 ) ;
#34 = CALENDAR_DATE ( 2017, 10, 4 ) ;
#35 = MECHANICAL_CONTEXT ( 'NONE', #58, 'mechanical' ) ;
#36 = ORIENTED_EDGE ( 'NONE', *, *, #94, .T. ) ;
#37 = DIRECTION ( 'NONE',  ( 1.000000000000000000, 0.0000000000000000000, 0.0000000000000000000 ) ) ;
#38 = CARTESIAN_POINT ( 'NONE',  ( -20.00000000000000000, 0.0000000000000000000, 3.000000000000000000 ) ) ;
#39 = VERTEX_POINT ( 'NONE', #102 ) ;
#40 = PERSON_AND_ORGANIZATION ( #164, #167 ) ;
#41 = AXIS2_PLACEMENT_3D ( 'NONE', #125, #109, #12 ) ;
#42 = AXIS2_PLACEMENT_3D ( 'NONE', #22, #69, #99 ) ;
#43 = DIRECTION ( 'NONE',  ( -0.0000000000000000000, -0.0000000000000000000, -1.000000000000000000 ) ) ;
#44 = CALENDAR_DATE ( 2017, 10, 4 ) ;
#45 = PERSON_AND_ORGANIZATION_ROLE ( 'creator' ) ;
#46 = CC_DESIGN_PERSON_AND_ORGANIZATION_ASSIGNMENT ( #81, #17, ( #14 ) ) ;
#47 = APPROVAL_DATE_TIME ( #28, #68 ) ;
#48 = COORDINATED_UNIVERSAL_TIME_OFFSET ( 5, 0, .BEHIND. ) ;
#49 = CIRCLE ( 'NONE', #23, 20.00000000000000000 ) ;
#50 = FACE_OUTER_BOUND ( 'NONE', #146, .T. ) ;
#51 = SHAPE_DEFINITION_REPRESENTATION ( #151, #134 ) ;
#52 = AXIS2_PLACEMENT_3D ( 'NONE', #89, #77, #37 ) ;
#53 = VERTEX_POINT ( 'NONE', #10 ) ;
#54 = DIRECTION ( 'NONE',  ( 0.0000000000000000000, 0.0000000000000000000, 1.000000000000000000 ) ) ;
#55 = EDGE_LOOP ( 'NONE', ( #135, #117 ) ) ;
#56 = APPLICATION_PROTOCOL_DEFINITION ( 'international standard', 'config_control_design', 1994, #58 ) ;
#57 = AXIS2_PLACEMENT_3D ( 'NONE', #132, #142, #59 ) ;
#58 = APPLICATION_CONTEXT ( 'configuration controlled 3d designs of mechanical parts and assemblies' ) ;
#59 = DIRECTION ( 'NONE',  ( -1.000000000000000000, 0.0000000000000000000, 0.0000000000000000000 ) ) ;
#60 = DIRECTION ( 'NONE',  ( 0.0000000000000000000, 0.0000000000000000000, 1.000000000000000000 ) ) ;
#61 = AXIS2_PLACEMENT_3D ( 'NONE', #158, #60, #26 ) ;
#62 = PERSON_AND_ORGANIZATION ( #164, #167 ) ;
#63 = PERSON_AND_ORGANIZATION_ROLE ( 'classification_officer' ) ;
#64 = LINE ( 'NONE', #25, #156 ) ;
#65 = APPROVAL_PERSON_ORGANIZATION ( #30, #105, #1 ) ;
#66 = DATE_TIME_ROLE ( 'creation_date' ) ;
#67 = DIRECTION ( 'NONE',  ( 0.0000000000000000000, 0.0000000000000000000, 1.000000000000000000 ) ) ;
#68 = APPROVAL ( #166, 'UNSPECIFIED' ) ;
#69 = DIRECTION ( 'NONE',  ( -0.0000000000000000000, -0.0000000000000000000, -1.000000000000000000 ) ) ;
#70 =( GEOMETRIC_REPRESENTATION_CONTEXT ( 3 ) GLOBAL_UNCERTAINTY_ASSIGNED_CONTEXT ( ( #147 ) ) GLOBAL_UNIT_ASSIGNED_CONTEXT ( ( #150, #80, #170 ) ) REPRESENTATION_CONTEXT ( 'NONE', 'WORKASPACE' ) );
#71 = PLANE ( 'NONE',  #83 ) ;
#72 = LOCAL_TIME ( 12, 42, 33.00000000000000000, #48 ) ;
#73 = ORIENTED_EDGE ( 'NONE', *, *, #27, .F. ) ;
#74 = AXIS2_PLACEMENT_3D ( 'NONE', #96, #113, #126 ) ;
#75 = VERTEX_POINT ( 'NONE', #38 ) ;
#76 = PERSON_AND_ORGANIZATION_ROLE ( 'creator' ) ;
#77 = DIRECTION ( 'NONE',  ( 0.0000000000000000000, 0.0000000000000000000, 1.000000000000000000 ) ) ;
#78 = LOCAL_TIME ( 12, 42, 33.00000000000000000, #100 ) ;
#79 = ORIENTED_EDGE ( 'NONE', *, *, #85, .F. ) ;
#80 =( NAMED_UNIT ( * ) PLANE_ANGLE_UNIT ( ) SI_UNIT ( $, .RADIAN. ) );
#81 = PERSON_AND_ORGANIZATION ( #164, #167 ) ;
#82 = COORDINATED_UNIVERSAL_TIME_OFFSET ( 5, 0, .BEHIND. ) ;
#83 = AXIS2_PLACEMENT_3D ( 'NONE', #91, #54, #169 ) ;
#84 = CARTESIAN_POINT ( 'NONE',  ( 0.0000000000000000000, 0.0000000000000000000, 0.0000000000000000000 ) ) ;
#85 = EDGE_CURVE ( 'NONE', #165, #53, #64, .T. ) ;
#86 = DIRECTION ( 'NONE',  ( -0.0000000000000000000, -0.0000000000000000000, -1.000000000000000000 ) ) ;
#87 = SECURITY_CLASSIFICATION ( '', '', #163 ) ;
#88 = ORIENTED_EDGE ( 'NONE', *, *, #101, .T. ) ;
#89 = CARTESIAN_POINT ( 'NONE',  ( 0.0000000000000000000, 0.0000000000000000000, 0.0000000000000000000 ) ) ;
#90 = EDGE_CURVE ( 'NONE', #165, #75, #153, .T. ) ;
#91 = CARTESIAN_POINT ( 'NONE',  ( 0.0000000000000000000, 0.0000000000000000000, 0.0000000000000000000 ) ) ;
#92 = CC_DESIGN_PERSON_AND_ORGANIZATION_ASSIGNMENT ( #154, #63, ( #87 ) ) ;
#93 = PERSON_AND_ORGANIZATION ( #164, #167 ) ;
#94 = EDGE_CURVE ( 'NONE', #53, #39, #49, .T. ) ;
#95 = CIRCLE ( 'NONE', #74, 20.00000000000000000 ) ;
#96 = CARTESIAN_POINT ( 'NONE',  ( 0.0000000000000000000, 0.0000000000000000000, 3.000000000000000000 ) ) ;
#97 = DATE_AND_TIME ( #34, #129 ) ;
#98 = PRODUCT_RELATED_PRODUCT_CATEGORY ( 'detail', '', ( #14 ) ) ;
#99 = DIRECTION ( 'NONE',  ( -1.000000000000000000, 0.0000000000000000000, 0.0000000000000000000 ) ) ;
#100 = COORDINATED_UNIVERSAL_TIME_OFFSET ( 5, 0, .BEHIND. ) ;
#101 = EDGE_CURVE ( 'NONE', #39, #53, #21, .T. ) ;
#102 = CARTESIAN_POINT ( 'NONE',  ( -20.00000000000000000, 0.0000000000000000000, 0.0000000000000000000 ) ) ;
#103 = ORIENTED_EDGE ( 'NONE', *, *, #94, .F. ) ;
#104 = CLOSED_SHELL ( 'NONE', ( #15, #124, #29, #171 ) ) ;
#105 = APPROVAL ( #145, 'UNSPECIFIED' ) ;
#106 = APPLICATION_CONTEXT ( 'configuration controlled 3d designs of mechanical parts and assemblies' ) ;
#107 = FACE_OUTER_BOUND ( 'NONE', #137, .T. ) ;
#108 = COORDINATED_UNIVERSAL_TIME_OFFSET ( 5, 0, .BEHIND. ) ;
#109 = DIRECTION ( 'NONE',  ( 0.0000000000000000000, 0.0000000000000000000, 1.000000000000000000 ) ) ;
#110 = DIRECTION ( 'NONE',  ( 1.000000000000000000, 0.0000000000000000000, 0.0000000000000000000 ) ) ;
#111 = APPROVAL_DATE_TIME ( #20, #6 ) ;
#112 = EDGE_CURVE ( 'NONE', #75, #165, #95, .T. ) ;
#113 = DIRECTION ( 'NONE',  ( 0.0000000000000000000, 0.0000000000000000000, 1.000000000000000000 ) ) ;
#114 = DATE_AND_TIME ( #44, #127 ) ;
#115 = LINE ( 'NONE', #174, #141 ) ;
#116 = CC_DESIGN_PERSON_AND_ORGANIZATION_ASSIGNMENT ( #5, #121, ( #175 ) ) ;
#117 = ORIENTED_EDGE ( 'NONE', *, *, #90, .T. ) ;
#118 = MANIFOLD_SOLID_BREP ( 'Extrude1', #104 ) ;
#119 = CC_DESIGN_APPROVAL ( #105, ( #87 ) ) ;
#120 = CYLINDRICAL_SURFACE ( 'NONE', #42, 20.00000000000000000 ) ;
#121 = PERSON_AND_ORGANIZATION_ROLE ( 'design_supplier' ) ;
#122 = APPROVAL_ROLE ( '' ) ;
#123 = APPROVAL_DATE_TIME ( #114, #105 ) ;
#124 = ADVANCED_FACE ( 'NONE', ( #128 ), #120, .T. ) ;
#125 = CARTESIAN_POINT ( 'NONE',  ( 0.0000000000000000000, 0.0000000000000000000, 3.000000000000000000 ) ) ;
#126 = DIRECTION ( 'NONE',  ( 1.000000000000000000, 0.0000000000000000000, 0.0000000000000000000 ) ) ;
#127 = LOCAL_TIME ( 12, 42, 33.00000000000000000, #108 ) ;
#128 = FACE_OUTER_BOUND ( 'NONE', #148, .T. ) ;
#129 = LOCAL_TIME ( 12, 42, 33.00000000000000000, #24 ) ;
#130 = DIRECTION ( 'NONE',  ( 1.000000000000000000, 0.0000000000000000000, 0.0000000000000000000 ) ) ;
#131 = ORIENTED_EDGE ( 'NONE', *, *, #112, .F. ) ;
#132 = CARTESIAN_POINT ( 'NONE',  ( 0.0000000000000000000, 0.0000000000000000000, 3.000000000000000000 ) ) ;
#133 = APPROVAL_PERSON_ORGANIZATION ( #62, #68, #3 ) ;
#134 = ADVANCED_BREP_SHAPE_REPRESENTATION ( 'Web Model 45571_45571', ( #118, #52 ), #70 ) ;
#135 = ORIENTED_EDGE ( 'NONE', *, *, #112, .T. ) ;
#136 = CC_DESIGN_APPROVAL ( #68, ( #140 ) ) ;
#137 = EDGE_LOOP ( 'NONE', ( #4, #103 ) ) ;
#138 = PLANE ( 'NONE',  #41 ) ;
#139 = CC_DESIGN_SECURITY_CLASSIFICATION ( #87, ( #175 ) ) ;
#140 = PRODUCT_DEFINITION ( 'UNKNOWN', '', #175, #143 ) ;
#141 = VECTOR ( 'NONE', #43, 1000.000000000000000 ) ;
#142 = DIRECTION ( 'NONE',  ( -0.0000000000000000000, -0.0000000000000000000, -1.000000000000000000 ) ) ;
#143 = DESIGN_CONTEXT ( 'detailed design', #106, 'design' ) ;
#144 = CARTESIAN_POINT ( 'NONE',  ( 20.00000000000000000, 2.449293598294706500E-015, 3.000000000000000000 ) ) ;
#145 = APPROVAL_STATUS ( 'not_yet_approved' ) ;
#146 = EDGE_LOOP ( 'NONE', ( #31, #16, #36, #73 ) ) ;
#147 = UNCERTAINTY_MEASURE_WITH_UNIT (LENGTH_MEASURE( 1.000000000000000100E-005 ), #150, 'distance_accuracy_value', 'NONE');
#148 = EDGE_LOOP ( 'NONE', ( #79, #131, #162, #88 ) ) ;
#149 = CALENDAR_DATE ( 2017, 10, 4 ) ;
#150 =( LENGTH_UNIT ( ) NAMED_UNIT ( * ) SI_UNIT ( .MILLI., .METRE. ) );
#152 = CALENDAR_DATE ( 2017, 10, 4 ) ;
#151 = PRODUCT_DEFINITION_SHAPE ( 'NONE', 'NONE',  #140 ) ;
#153 = CIRCLE ( 'NONE', #61, 20.00000000000000000 ) ;
#154 = PERSON_AND_ORGANIZATION ( #164, #167 ) ;
#155 = DATE_AND_TIME ( #149, #78 ) ;
#156 = VECTOR ( 'NONE', #86, 1000.000000000000000 ) ;
#157 = CC_DESIGN_APPROVAL ( #6, ( #175 ) ) ;
#158 = CARTESIAN_POINT ( 'NONE',  ( 0.0000000000000000000, 0.0000000000000000000, 3.000000000000000000 ) ) ;
#159 = APPROVAL_STATUS ( 'not_yet_approved' ) ;
#160 = FACE_OUTER_BOUND ( 'NONE', #55, .T. ) ;
#161 = DATE_TIME_ROLE ( 'classification_date' ) ;
#162 = ORIENTED_EDGE ( 'NONE', *, *, #27, .T. ) ;
#163 = SECURITY_CLASSIFICATION_LEVEL ( 'unclassified' ) ;
#164 = PERSON ( 'UNSPECIFIED', 'UNSPECIFIED', 'UNSPECIFIED', ('UNSPECIFIED'), ('UNSPECIFIED'), ('UNSPECIFIED') ) ;
#165 = VERTEX_POINT ( 'NONE', #144 ) ;
#166 = APPROVAL_STATUS ( 'not_yet_approved' ) ;
#167 = ORGANIZATION ( 'UNSPECIFIED', 'UNSPECIFIED', '' ) ;
#168 = CC_DESIGN_PERSON_AND_ORGANIZATION_ASSIGNMENT ( #93, #76, ( #140 ) ) ;
#169 = DIRECTION ( 'NONE',  ( 1.000000000000000000, 0.0000000000000000000, -0.0000000000000000000 ) ) ;
#170 =( NAMED_UNIT ( * ) SI_UNIT ( $, .STERADIAN. ) SOLID_ANGLE_UNIT ( ) );
#171 = ADVANCED_FACE ( 'NONE', ( #107 ), #71, .F. ) ;
#172 = CALENDAR_DATE ( 2017, 10, 4 ) ;
#173 = CARTESIAN_POINT ( 'NONE',  ( 0.0000000000000000000, 0.0000000000000000000, 0.0000000000000000000 ) ) ;
#174 = CARTESIAN_POINT ( 'NONE',  ( -20.00000000000000000, 0.0000000000000000000, 3.000000000000000000 ) ) ;
#175 = PRODUCT_DEFINITION_FORMATION_WITH_SPECIFIED_SOURCE ( 'ANY', '', #14, .NOT_KNOWN. ) ;
ENDSEC;
END-ISO-10303-21;
