ISO-10303-21;
HEADER;
FILE_DESCRIPTION (( 'STEP AP203' ),
    '1' );
FILE_NAME ('Web Model 47681_15963.step',
    '2020-10-07T17:22:11',
    ( '' ),
    ( '' ),
    'SwSTEP 2.0',
    'SolidWorks 2018',
    '' );
FILE_SCHEMA (( 'CONFIG_CONTROL_DESIGN' ));
ENDSEC;

DATA;
#1 = LOCAL_TIME ( 13, 22, 11.00000000000000000, #170 ) ;
#2 = DESIGN_CONTEXT ( 'detailed design', #155, 'design' ) ;
#3 = APPROVAL_DATE_TIME ( #125, #60 ) ;
#4 = COORDINATED_UNIVERSAL_TIME_OFFSET ( 5, 0, .BEHIND. ) ;
#5 = PERSON_AND_ORGANIZATION ( #124, #132 ) ;
#6 = AXIS2_PLACEMENT_3D ( 'NONE', #30, #86, #48 ) ;
#7 = DIRECTION ( 'NONE',  ( 0.0000000000000000000, 0.0000000000000000000, 1.000000000000000000 ) ) ;
#8 = APPROVAL_PERSON_ORGANIZATION ( #142, #60, #76 ) ;
#9 = CARTESIAN_POINT ( 'NONE',  ( 5.000000000000000888, 6.123233995736767268E-16, -0.7500000000000000000 ) ) ;
#10 = EDGE_CURVE ( 'NONE', #117, #126, #103, .T. ) ;
#11 = ORIENTED_EDGE ( 'NONE', *, *, #143, .T. ) ;
#12 = PERSON_AND_ORGANIZATION ( #124, #132 ) ;
#13 = MECHANICAL_CONTEXT ( 'NONE', #62, 'mechanical' ) ;
#14 =( GEOMETRIC_REPRESENTATION_CONTEXT ( 3 ) GLOBAL_UNCERTAINTY_ASSIGNED_CONTEXT ( ( #32 ) ) GLOBAL_UNIT_ASSIGNED_CONTEXT ( ( #172, #91, #35 ) ) REPRESENTATION_CONTEXT ( 'NONE', 'WORKASPACE' ) );
#15 = CLOSED_SHELL ( 'NONE', ( #166, #46, #152, #96 ) ) ;
#16 = CC_DESIGN_DATE_AND_TIME_ASSIGNMENT ( #98, #173, ( #69 ) ) ;
#17 = FACE_OUTER_BOUND ( 'NONE', #64, .T. ) ;
#18 = DIRECTION ( 'NONE',  ( -1.000000000000000000, 0.0000000000000000000, 0.0000000000000000000 ) ) ;
#19 = PLANE ( 'NONE',  #6 ) ;
#20 = ORIENTED_EDGE ( 'NONE', *, *, #159, .F. ) ;
#21 = VECTOR ( 'NONE', #102, 1000.000000000000000 ) ;
#22 = DIRECTION ( 'NONE',  ( -0.0000000000000000000, -0.0000000000000000000, -1.000000000000000000 ) ) ;
#23 = VERTEX_POINT ( 'NONE', #154 ) ;
#24 = DIRECTION ( 'NONE',  ( 0.0000000000000000000, 0.0000000000000000000, 1.000000000000000000 ) ) ;
#25 = APPROVAL_STATUS ( 'not_yet_approved' ) ;
#26 = ORIENTED_EDGE ( 'NONE', *, *, #134, .T. ) ;
#27 = APPROVAL ( #25, 'UNSPECIFIED' ) ;
#28 = AXIS2_PLACEMENT_3D ( 'NONE', #83, #7, #47 ) ;
#29 = ORIENTED_EDGE ( 'NONE', *, *, #159, .T. ) ;
#30 = CARTESIAN_POINT ( 'NONE',  ( 0.0000000000000000000, 0.0000000000000000000, 0.7500000000000000000 ) ) ;
#31 = FACE_OUTER_BOUND ( 'NONE', #147, .T. ) ;
#32 = UNCERTAINTY_MEASURE_WITH_UNIT (LENGTH_MEASURE( 1.000000000000000082E-05 ), #172, 'distance_accuracy_value', 'NONE');
#33 = CARTESIAN_POINT ( 'NONE',  ( 0.0000000000000000000, 0.0000000000000000000, 0.7500000000000000000 ) ) ;
#34 = LOCAL_TIME ( 13, 22, 11.00000000000000000, #38 ) ;
#35 =( NAMED_UNIT ( * ) SI_UNIT ( $, .STERADIAN. ) SOLID_ANGLE_UNIT ( ) );
#36 = CALENDAR_DATE ( 2020, 7, 10 ) ;
#37 = APPROVAL_STATUS ( 'not_yet_approved' ) ;
#38 = COORDINATED_UNIVERSAL_TIME_OFFSET ( 5, 0, .BEHIND. ) ;
#39 = AXIS2_PLACEMENT_3D ( 'NONE', #73, #70, #18 ) ;
#40 = ORIENTED_EDGE ( 'NONE', *, *, #174, .T. ) ;
#41 = DATE_AND_TIME ( #114, #108 ) ;
#42 = AXIS2_PLACEMENT_3D ( 'NONE', #88, #63, #136 ) ;
#43 = ADVANCED_BREP_SHAPE_REPRESENTATION ( 'Web Model 47681_15963', ( #77, #42 ), #14 ) ;
#44 = LOCAL_TIME ( 13, 22, 11.00000000000000000, #94 ) ;
#45 = CC_DESIGN_PERSON_AND_ORGANIZATION_ASSIGNMENT ( #115, #116, ( #93 ) ) ;
#46 = ADVANCED_FACE ( 'NONE', ( #31 ), #66, .T. ) ;
#47 = DIRECTION ( 'NONE',  ( 1.000000000000000000, 0.0000000000000000000, 0.0000000000000000000 ) ) ;
#48 = DIRECTION ( 'NONE',  ( 1.000000000000000000, 0.0000000000000000000, -0.0000000000000000000 ) ) ;
#49 = AXIS2_PLACEMENT_3D ( 'NONE', #133, #24, #51 ) ;
#50 = PERSON_AND_ORGANIZATION_ROLE ( 'classification_officer' ) ;
#51 = DIRECTION ( 'NONE',  ( 1.000000000000000000, 0.0000000000000000000, 0.0000000000000000000 ) ) ;
#52 = PERSON_AND_ORGANIZATION_ROLE ( 'design_supplier' ) ;
#53 = CC_DESIGN_PERSON_AND_ORGANIZATION_ASSIGNMENT ( #165, #157, ( #55 ) ) ;
#54 = FACE_OUTER_BOUND ( 'NONE', #120, .T. ) ;
#55 = PRODUCT ( 'Web Model 47681_15963', 'Web Model 47681_15963', '', ( #13 ) ) ;
#56 = CC_DESIGN_PERSON_AND_ORGANIZATION_ASSIGNMENT ( #105, #50, ( #106 ) ) ;
#57 = APPROVAL_DATE_TIME ( #41, #27 ) ;
#58 = DIRECTION ( 'NONE',  ( -0.0000000000000000000, -0.0000000000000000000, -1.000000000000000000 ) ) ;
#59 = CARTESIAN_POINT ( 'NONE',  ( -5.000000000000000888, 0.0000000000000000000, 0.7500000000000000000 ) ) ;
#60 = APPROVAL ( #65, 'UNSPECIFIED' ) ;
#61 = ORIENTED_EDGE ( 'NONE', *, *, #10, .T. ) ;
#62 = APPLICATION_CONTEXT ( 'configuration controlled 3d designs of mechanical parts and assemblies' ) ;
#63 = DIRECTION ( 'NONE',  ( 0.0000000000000000000, 0.0000000000000000000, 1.000000000000000000 ) ) ;
#64 = EDGE_LOOP ( 'NONE', ( #26, #175 ) ) ;
#65 = APPROVAL_STATUS ( 'not_yet_approved' ) ;
#66 = CYLINDRICAL_SURFACE ( 'NONE', #39, 5.000000000000000888 ) ;
#67 = APPROVAL ( #37, 'UNSPECIFIED' ) ;
#68 = VECTOR ( 'NONE', #22, 1000.000000000000000 ) ;
#69 = PRODUCT_DEFINITION ( 'UNKNOWN', '', #93, #2 ) ;
#70 = DIRECTION ( 'NONE',  ( -0.0000000000000000000, -0.0000000000000000000, -1.000000000000000000 ) ) ;
#71 = CARTESIAN_POINT ( 'NONE',  ( -5.000000000000000888, 0.0000000000000000000, 0.7500000000000000000 ) ) ;
#72 = APPROVAL_PERSON_ORGANIZATION ( #123, #67, #104 ) ;
#73 = CARTESIAN_POINT ( 'NONE',  ( 0.0000000000000000000, 0.0000000000000000000, 0.7500000000000000000 ) ) ;
#74 = CC_DESIGN_APPROVAL ( #67, ( #106 ) ) ;
#75 = DATE_TIME_ROLE ( 'classification_date' ) ;
#76 = APPROVAL_ROLE ( '' ) ;
#77 = MANIFOLD_SOLID_BREP ( 'Boss-Extrude1', #15 ) ;
#78 = PERSON_AND_ORGANIZATION_ROLE ( 'creator' ) ;
#79 = CC_DESIGN_APPROVAL ( #27, ( #93 ) ) ;
#80 = CC_DESIGN_PERSON_AND_ORGANIZATION_ASSIGNMENT ( #5, #52, ( #93 ) ) ;
#81 = EDGE_LOOP ( 'NONE', ( #107, #40, #29, #113 ) ) ;
#82 = CC_DESIGN_SECURITY_CLASSIFICATION ( #106, ( #93 ) ) ;
#83 = CARTESIAN_POINT ( 'NONE',  ( 0.0000000000000000000, 0.0000000000000000000, 0.7500000000000000000 ) ) ;
#84 = CARTESIAN_POINT ( 'NONE',  ( 0.0000000000000000000, 0.0000000000000000000, -0.7500000000000000000 ) ) ;
#85 = EDGE_CURVE ( 'NONE', #23, #117, #167, .T. ) ;
#86 = DIRECTION ( 'NONE',  ( 0.0000000000000000000, 0.0000000000000000000, 1.000000000000000000 ) ) ;
#87 = ORIENTED_EDGE ( 'NONE', *, *, #174, .F. ) ;
#88 = CARTESIAN_POINT ( 'NONE',  ( 0.0000000000000000000, 0.0000000000000000000, 0.0000000000000000000 ) ) ;
#89 = PRODUCT_RELATED_PRODUCT_CATEGORY ( 'detail', '', ( #55 ) ) ;
#90 = APPLICATION_PROTOCOL_DEFINITION ( 'international standard', 'config_control_design', 1994, #155 ) ;
#91 =( NAMED_UNIT ( * ) PLANE_ANGLE_UNIT ( ) SI_UNIT ( $, .RADIAN. ) );
#92 = AXIS2_PLACEMENT_3D ( 'NONE', #169, #111, #153 ) ;
#93 = PRODUCT_DEFINITION_FORMATION_WITH_SPECIFIED_SOURCE ( 'ANY', '', #55, .NOT_KNOWN. ) ;
#94 = COORDINATED_UNIVERSAL_TIME_OFFSET ( 5, 0, .BEHIND. ) ;
#95 = FACE_OUTER_BOUND ( 'NONE', #81, .T. ) ;
#96 = ADVANCED_FACE ( 'NONE', ( #54 ), #100, .F. ) ;
#97 = PRODUCT_DEFINITION_SHAPE ( 'NONE', 'NONE',  #69 ) ;
#98 = DATE_AND_TIME ( #163, #34 ) ;
#99 = DIRECTION ( 'NONE',  ( 0.0000000000000000000, 0.0000000000000000000, 1.000000000000000000 ) ) ;
#100 = PLANE ( 'NONE',  #118 ) ;
#101 = CC_DESIGN_APPROVAL ( #60, ( #69 ) ) ;
#102 = DIRECTION ( 'NONE',  ( -0.0000000000000000000, -0.0000000000000000000, -1.000000000000000000 ) ) ;
#103 = LINE ( 'NONE', #59, #68 ) ;
#104 = APPROVAL_ROLE ( '' ) ;
#105 = PERSON_AND_ORGANIZATION ( #124, #132 ) ;
#106 = SECURITY_CLASSIFICATION ( '', '', #158 ) ;
#107 = ORIENTED_EDGE ( 'NONE', *, *, #85, .F. ) ;
#108 = LOCAL_TIME ( 13, 22, 11.00000000000000000, #4 ) ;
#109 = CIRCLE ( 'NONE', #49, 5.000000000000000888 ) ;
#110 = DIRECTION ( 'NONE',  ( 0.0000000000000000000, 0.0000000000000000000, 1.000000000000000000 ) ) ;
#111 = DIRECTION ( 'NONE',  ( 0.0000000000000000000, 0.0000000000000000000, 1.000000000000000000 ) ) ;
#112 = CC_DESIGN_DATE_AND_TIME_ASSIGNMENT ( #156, #75, ( #106 ) ) ;
#113 = ORIENTED_EDGE ( 'NONE', *, *, #10, .F. ) ;
#114 = CALENDAR_DATE ( 2020, 7, 10 ) ;
#115 = PERSON_AND_ORGANIZATION ( #124, #132 ) ;
#116 = PERSON_AND_ORGANIZATION_ROLE ( 'creator' ) ;
#117 = VERTEX_POINT ( 'NONE', #71 ) ;
#118 = AXIS2_PLACEMENT_3D ( 'NONE', #84, #110, #150 ) ;
#119 = DIRECTION ( 'NONE',  ( -1.000000000000000000, 0.0000000000000000000, 0.0000000000000000000 ) ) ;
#120 = EDGE_LOOP ( 'NONE', ( #149, #20 ) ) ;
#121 = DATE_AND_TIME ( #140, #1 ) ;
#122 = AXIS2_PLACEMENT_3D ( 'NONE', #33, #58, #119 ) ;
#123 = PERSON_AND_ORGANIZATION ( #124, #132 ) ;
#124 = PERSON ( 'UNSPECIFIED', 'UNSPECIFIED', 'UNSPECIFIED', ('UNSPECIFIED'), ('UNSPECIFIED'), ('UNSPECIFIED') ) ;
#125 = DATE_AND_TIME ( #130, #44 ) ;
#126 = VERTEX_POINT ( 'NONE', #128 ) ;
#127 = ORIENTED_EDGE ( 'NONE', *, *, #134, .F. ) ;
#128 = CARTESIAN_POINT ( 'NONE',  ( -5.000000000000000888, 0.0000000000000000000, -0.7500000000000000000 ) ) ;
#129 = AXIS2_PLACEMENT_3D ( 'NONE', #168, #99, #151 ) ;
#130 = CALENDAR_DATE ( 2020, 7, 10 ) ;
#131 = CYLINDRICAL_SURFACE ( 'NONE', #122, 5.000000000000000888 ) ;
#132 = ORGANIZATION ( 'UNSPECIFIED', 'UNSPECIFIED', '' ) ;
#133 = CARTESIAN_POINT ( 'NONE',  ( 0.0000000000000000000, 0.0000000000000000000, -0.7500000000000000000 ) ) ;
#134 = EDGE_CURVE ( 'NONE', #117, #23, #161, .T. ) ;
#135 = LOCAL_TIME ( 13, 22, 11.00000000000000000, #138 ) ;
#136 = DIRECTION ( 'NONE',  ( 1.000000000000000000, 0.0000000000000000000, 0.0000000000000000000 ) ) ;
#137 = LINE ( 'NONE', #145, #21 ) ;
#138 = COORDINATED_UNIVERSAL_TIME_OFFSET ( 5, 0, .BEHIND. ) ;
#139 = PERSON_AND_ORGANIZATION ( #124, #132 ) ;
#140 = CALENDAR_DATE ( 2020, 7, 10 ) ;
#141 = APPROVAL_DATE_TIME ( #121, #67 ) ;
#142 = PERSON_AND_ORGANIZATION ( #124, #132 ) ;
#143 = EDGE_CURVE ( 'NONE', #126, #164, #160, .T. ) ;
#144 = SHAPE_DEFINITION_REPRESENTATION ( #97, #43 ) ;
#145 = CARTESIAN_POINT ( 'NONE',  ( 5.000000000000000888, 6.123233995736767268E-16, 0.7500000000000000000 ) ) ;
#146 = APPLICATION_PROTOCOL_DEFINITION ( 'international standard', 'config_control_design', 1994, #62 ) ;
#147 = EDGE_LOOP ( 'NONE', ( #87, #127, #61, #11 ) ) ;
#148 = APPROVAL_PERSON_ORGANIZATION ( #12, #27, #171 ) ;
#149 = ORIENTED_EDGE ( 'NONE', *, *, #143, .F. ) ;
#150 = DIRECTION ( 'NONE',  ( 1.000000000000000000, 0.0000000000000000000, -0.0000000000000000000 ) ) ;
#151 = DIRECTION ( 'NONE',  ( 1.000000000000000000, 0.0000000000000000000, 0.0000000000000000000 ) ) ;
#152 = ADVANCED_FACE ( 'NONE', ( #17 ), #19, .T. ) ;
#153 = DIRECTION ( 'NONE',  ( 1.000000000000000000, 0.0000000000000000000, 0.0000000000000000000 ) ) ;
#154 = CARTESIAN_POINT ( 'NONE',  ( 5.000000000000000888, 6.123233995736767268E-16, 0.7500000000000000000 ) ) ;
#155 = APPLICATION_CONTEXT ( 'configuration controlled 3d designs of mechanical parts and assemblies' ) ;
#156 = DATE_AND_TIME ( #36, #135 ) ;
#157 = PERSON_AND_ORGANIZATION_ROLE ( 'design_owner' ) ;
#158 = SECURITY_CLASSIFICATION_LEVEL ( 'unclassified' ) ;
#159 = EDGE_CURVE ( 'NONE', #164, #126, #109, .T. ) ;
#160 = CIRCLE ( 'NONE', #129, 5.000000000000000888 ) ;
#161 = CIRCLE ( 'NONE', #28, 5.000000000000000888 ) ;
#162 = CC_DESIGN_PERSON_AND_ORGANIZATION_ASSIGNMENT ( #139, #78, ( #69 ) ) ;
#163 = CALENDAR_DATE ( 2020, 7, 10 ) ;
#164 = VERTEX_POINT ( 'NONE', #9 ) ;
#165 = PERSON_AND_ORGANIZATION ( #124, #132 ) ;
#166 = ADVANCED_FACE ( 'NONE', ( #95 ), #131, .T. ) ;
#167 = CIRCLE ( 'NONE', #92, 5.000000000000000888 ) ;
#168 = CARTESIAN_POINT ( 'NONE',  ( 0.0000000000000000000, 0.0000000000000000000, -0.7500000000000000000 ) ) ;
#169 = CARTESIAN_POINT ( 'NONE',  ( 0.0000000000000000000, 0.0000000000000000000, 0.7500000000000000000 ) ) ;
#170 = COORDINATED_UNIVERSAL_TIME_OFFSET ( 5, 0, .BEHIND. ) ;
#171 = APPROVAL_ROLE ( '' ) ;
#172 =( LENGTH_UNIT ( ) NAMED_UNIT ( * ) SI_UNIT ( .MILLI., .METRE. ) );
#173 = DATE_TIME_ROLE ( 'creation_date' ) ;
#174 = EDGE_CURVE ( 'NONE', #23, #164, #137, .T. ) ;
#175 = ORIENTED_EDGE ( 'NONE', *, *, #85, .T. ) ;
ENDSEC;
END-ISO-10303-21;
