ISO-10303-21;
HEADER;
FILE_DESCRIPTION (( 'STEP AP203' ),
    '1' );
FILE_NAME ('TTN162814-E0W.STEP',
    '2019-10-24T14:18:34',
    ( '' ),
    ( '' ),
    'SwSTEP 2.0',
    'SolidWorks 2018',
    '' );
FILE_SCHEMA (( 'CONFIG_CONTROL_DESIGN' ));
ENDSEC;

DATA;
#1 = APPLICATION_CONTEXT ( 'configuration controlled 3d designs of mechanical parts and assemblies' ) ;
#2 = EDGE_LOOP ( 'NONE', ( #64, #195, #275, #60 ) ) ;
#3 = SHAPE_DEFINITION_REPRESENTATION ( #82, #100 ) ;
#4 = VECTOR ( 'NONE', #47, 1000.000000000000000 ) ;
#5 = FACE_OUTER_BOUND ( 'NONE', #211, .T. ) ;
#6 = DIRECTION ( 'NONE',  ( -1.000000000000000000, 0.0000000000000000000, 0.0000000000000000000 ) ) ;
#7 = DIRECTION ( 'NONE',  ( 0.0000000000000000000, 0.0000000000000000000, -1.000000000000000000 ) ) ;
#8 = ORIENTED_EDGE ( 'NONE', *, *, #55, .T. ) ;
#9 = ORIENTED_EDGE ( 'NONE', *, *, #274, .T. ) ;
#10 = EDGE_LOOP ( 'NONE', ( #105, #9, #77, #28 ) ) ;
#11 = ADVANCED_FACE ( 'NONE', ( #284 ), #76, .T. ) ;
#12 = AXIS2_PLACEMENT_3D ( 'NONE', #164, #68, #90 ) ;
#13 = DIRECTION ( 'NONE',  ( 0.0000000000000000000, -0.0000000000000000000, 1.000000000000000000 ) ) ;
#14 = ORIENTED_EDGE ( 'NONE', *, *, #197, .F. ) ;
#15 = ADVANCED_FACE ( 'NONE', ( #133 ), #137, .T. ) ;
#16 = LOCAL_TIME ( 10, 18, 34.00000000000000000, #26 ) ;
#17 = CARTESIAN_POINT ( 'NONE',  ( -0.1190069181276791899, 0.8645466400338372992, 1.770721286284215656 ) ) ;
#18 = ORIENTED_EDGE ( 'NONE', *, *, #197, .T. ) ;
#19 = CALENDAR_DATE ( 2019, 24, 10 ) ;
#20 = LINE ( 'NONE', #253, #231 ) ;
#21 = CC_DESIGN_DATE_AND_TIME_ASSIGNMENT ( #241, #294, ( #180 ) ) ;
#22 = ORIENTED_EDGE ( 'NONE', *, *, #104, .F. ) ;
#23 = CARTESIAN_POINT ( 'NONE',  ( 1.830993081872321238, 0.8645466400338371882, 1.085945967763427555 ) ) ;
#24 = CARTESIAN_POINT ( 'NONE',  ( 0.8809930818723208379, 0.8645466400338371882, 1.770721286284215656 ) ) ;
#25 = EDGE_CURVE ( 'NONE', #207, #252, #20, .T. ) ;
#26 = COORDINATED_UNIVERSAL_TIME_OFFSET ( 5, 0, .BEHIND. ) ;
#27 = DIRECTION ( 'NONE',  ( -0.0000000000000000000, -0.0000000000000000000, 1.000000000000000000 ) ) ;
#28 = ORIENTED_EDGE ( 'NONE', *, *, #84, .T. ) ;
#29 = COORDINATED_UNIVERSAL_TIME_OFFSET ( 5, 0, .BEHIND. ) ;
#30 = VERTEX_POINT ( 'NONE', #311 ) ;
#31 = DIRECTION ( 'NONE',  ( 1.000000000000000000, 0.0000000000000000000, 0.0000000000000000000 ) ) ;
#32 = CALENDAR_DATE ( 2019, 24, 10 ) ;
#33 = ORIENTED_EDGE ( 'NONE', *, *, #119, .T. ) ;
#34 = VECTOR ( 'NONE', #39, 999.9999999999998863 ) ;
#35 = VERTEX_POINT ( 'NONE', #183 ) ;
#36 = APPROVAL ( #49, 'UNSPECIFIED' ) ;
#37 = CARTESIAN_POINT ( 'NONE',  ( 0.8809930818723208379, 0.8645466400338371882, 0.2519459677634274808 ) ) ;
#38 = DIRECTION ( 'NONE',  ( 1.000000000000000000, 0.0000000000000000000, 0.0000000000000000000 ) ) ;
#39 = DIRECTION ( 'NONE',  ( 0.7071067811865467956, 8.659560562354925463E-17, -0.7071067811865483499 ) ) ;
#40 = ORIENTED_EDGE ( 'NONE', *, *, #276, .T. ) ;
#41 = DIRECTION ( 'NONE',  ( -1.182336065960200969E-16, -1.000000000000000000, 0.0000000000000000000 ) ) ;
#42 = PERSON_AND_ORGANIZATION ( #165, #160 ) ;
#43 = SPHERICAL_SURFACE ( 'NONE', #219, 1.834000000000000075 ) ;
#44 = CC_DESIGN_APPROVAL ( #36, ( #180 ) ) ;
#45 = DIRECTION ( 'NONE',  ( -0.0000000000000000000, -0.0000000000000000000, 1.000000000000000000 ) ) ;
#46 = CARTESIAN_POINT ( 'NONE',  ( 0.8809930818723207269, -0.08545335996616297558, 1.820721286284215479 ) ) ;
#47 = DIRECTION ( 'NONE',  ( -0.0000000000000000000, -0.0000000000000000000, 1.000000000000000000 ) ) ;
#48 =( NAMED_UNIT ( * ) PLANE_ANGLE_UNIT ( ) SI_UNIT ( $, .RADIAN. ) );
#49 = APPROVAL_STATUS ( 'not_yet_approved' ) ;
#50 = PERSON_AND_ORGANIZATION_ROLE ( 'design_supplier' ) ;
#51 = CC_DESIGN_PERSON_AND_ORGANIZATION_ASSIGNMENT ( #226, #319, ( #251 ) ) ;
#52 = CARTESIAN_POINT ( 'NONE',  ( 0.8809930818723208379, 0.8645466400338371882, 2.085945967763427777 ) ) ;
#53 = ORIENTED_EDGE ( 'NONE', *, *, #285, .T. ) ;
#54 = ORIENTED_EDGE ( 'NONE', *, *, #175, .F. ) ;
#55 = EDGE_CURVE ( 'NONE', #192, #207, #310, .T. ) ;
#56 = DIRECTION ( 'NONE',  ( 0.7071067811865444641, 0.0000000000000000000, 0.7071067811865505703 ) ) ;
#57 = CIRCLE ( 'NONE', #134, 1.834000000000000075 ) ;
#58 = DIRECTION ( 'NONE',  ( -0.0000000000000000000, -0.0000000000000000000, 1.000000000000000000 ) ) ;
#59 = VECTOR ( 'NONE', #194, 999.9999999999998863 ) ;
#60 = ORIENTED_EDGE ( 'NONE', *, *, #303, .T. ) ;
#61 = AXIS2_PLACEMENT_3D ( 'NONE', #221, #101, #31 ) ;
#62 = ORIENTED_EDGE ( 'NONE', *, *, #25, .F. ) ;
#63 = CARTESIAN_POINT ( 'NONE',  ( 1.880993081872320838, 0.8645466400338371882, 1.770721286284215656 ) ) ;
#64 = ORIENTED_EDGE ( 'NONE', *, *, #203, .T. ) ;
#65 = SECURITY_CLASSIFICATION ( '', '', #174 ) ;
#66 = DIRECTION ( 'NONE',  ( 0.0000000000000000000, 0.0000000000000000000, -1.000000000000000000 ) ) ;
#67 = CONICAL_SURFACE ( 'NONE', #125, 1.000000000000000000, 0.7853981633974439491 ) ;
#68 = DIRECTION ( 'NONE',  ( 0.0000000000000000000, 0.0000000000000000000, -1.000000000000000000 ) ) ;
#69 = DIRECTION ( 'NONE',  ( 1.000000000000000000, 0.0000000000000000000, 0.0000000000000000000 ) ) ;
#70 = AXIS2_PLACEMENT_3D ( 'NONE', #196, #66, #316 ) ;
#71 = CARTESIAN_POINT ( 'NONE',  ( 0.0000000000000000000, 0.0000000000000000000, 0.0000000000000000000 ) ) ;
#72 = APPROVAL_ROLE ( '' ) ;
#73 = CIRCLE ( 'NONE', #315, 1.000000000000000000 ) ;
#74 = VERTEX_POINT ( 'NONE', #187 ) ;
#75 = LOCAL_TIME ( 10, 18, 34.00000000000000000, #29 ) ;
#76 = CONICAL_SURFACE ( 'NONE', #78, 1.000000000000000000, 0.7853981633974472798 ) ;
#77 = ORIENTED_EDGE ( 'NONE', *, *, #321, .T. ) ;
#78 = AXIS2_PLACEMENT_3D ( 'NONE', #156, #7, #6 ) ;
#79 = CC_DESIGN_APPROVAL ( #289, ( #65 ) ) ;
#80 = CARTESIAN_POINT ( 'NONE',  ( 0.8809930818723208379, 0.8645466400338371882, 1.085945967763427555 ) ) ;
#81 = AXIS2_PLACEMENT_3D ( 'NONE', #89, #261, #41 ) ;
#82 = PRODUCT_DEFINITION_SHAPE ( 'NONE', 'NONE',  #180 ) ;
#83 = ADVANCED_FACE ( 'NONE', ( #260 ), #67, .T. ) ;
#84 = EDGE_CURVE ( 'NONE', #74, #155, #57, .T. ) ;
#85 = DIRECTION ( 'NONE',  ( 1.000000000000000000, 0.0000000000000000000, 0.0000000000000000000 ) ) ;
#86 = ORIENTED_EDGE ( 'NONE', *, *, #191, .T. ) ;
#87 = PERSON_AND_ORGANIZATION ( #165, #160 ) ;
#88 = CARTESIAN_POINT ( 'NONE',  ( 0.8809930818723208379, 0.8645466400338371882, 1.820721286284215479 ) ) ;
#89 = CARTESIAN_POINT ( 'NONE',  ( 0.8809930818723208379, 0.8645466400338371882, 0.2519459677634274808 ) ) ;
#90 = DIRECTION ( 'NONE',  ( -1.000000000000000000, 0.0000000000000000000, 0.0000000000000000000 ) ) ;
#91 = CARTESIAN_POINT ( 'NONE',  ( -0.1190069181276791899, 0.8645466400338372992, 1.135945967763427822 ) ) ;
#92 = VERTEX_POINT ( 'NONE', #63 ) ;
#93 = CARTESIAN_POINT ( 'NONE',  ( -0.1190069181276791899, 0.8645466400338372992, 1.135945967763427822 ) ) ;
#94 = APPROVAL_ROLE ( '' ) ;
#95 = APPROVAL_DATE_TIME ( #223, #289 ) ;
#96 = DIRECTION ( 'NONE',  ( 1.000000000000000000, 0.0000000000000000000, 0.0000000000000000000 ) ) ;
#97 = ORIENTED_EDGE ( 'NONE', *, *, #139, .F. ) ;
#98 = COORDINATED_UNIVERSAL_TIME_OFFSET ( 5, 0, .BEHIND. ) ;
#99 = LINE ( 'NONE', #317, #246 ) ;
#100 = ADVANCED_BREP_SHAPE_REPRESENTATION ( 'TTN162814-E0W', ( #179, #142 ), #188 ) ;
#101 = DIRECTION ( 'NONE',  ( -0.0000000000000000000, -0.0000000000000000000, 1.000000000000000000 ) ) ;
#102 = AXIS2_PLACEMENT_3D ( 'NONE', #24, #312, #69 ) ;
#103 = CC_DESIGN_PERSON_AND_ORGANIZATION_ASSIGNMENT ( #212, #120, ( #108 ) ) ;
#104 = EDGE_CURVE ( 'NONE', #30, #92, #199, .T. ) ;
#105 = ORIENTED_EDGE ( 'NONE', *, *, #230, .F. ) ;
#106 = LINE ( 'NONE', #217, #59 ) ;
#107 = ADVANCED_FACE ( 'NONE', ( #5 ), #110, .F. ) ;
#108 = PRODUCT ( 'TTN162814-E0W', 'TTN162814-E0W', '', ( #269 ) ) ;
#109 = AXIS2_PLACEMENT_3D ( 'NONE', #37, #209, #166 ) ;
#110 = PLANE ( 'NONE',  #267 ) ;
#111 = ADVANCED_FACE ( 'NONE', ( #129 ), #43, .T. ) ;
#112 = COORDINATED_UNIVERSAL_TIME_OFFSET ( 5, 0, .BEHIND. ) ;
#113 = DIRECTION ( 'NONE',  ( 1.000000000000000000, 0.0000000000000000000, 0.0000000000000000000 ) ) ;
#114 = CONICAL_SURFACE ( 'NONE', #157, 1.000000000000000000, 0.7853981633974439491 ) ;
#115 = CARTESIAN_POINT ( 'NONE',  ( 0.8809930818723208379, 0.8645466400338371882, 1.135945967763427822 ) ) ;
#116 = AXIS2_PLACEMENT_3D ( 'NONE', #236, #45, #263 ) ;
#117 =( NAMED_UNIT ( * ) SI_UNIT ( $, .STERADIAN. ) SOLID_ANGLE_UNIT ( ) );
#118 = FACE_OUTER_BOUND ( 'NONE', #308, .T. ) ;
#119 = EDGE_CURVE ( 'NONE', #252, #182, #73, .T. ) ;
#120 = PERSON_AND_ORGANIZATION_ROLE ( 'design_owner' ) ;
#121 = DIRECTION ( 'NONE',  ( 0.0000000000000000000, 0.0000000000000000000, 1.000000000000000000 ) ) ;
#122 = ORIENTED_EDGE ( 'NONE', *, *, #170, .T. ) ;
#123 = SPHERICAL_SURFACE ( 'NONE', #109, 1.834000000000000075 ) ;
#124 = EDGE_LOOP ( 'NONE', ( #147, #138, #131, #97 ) ) ;
#125 = AXIS2_PLACEMENT_3D ( 'NONE', #283, #132, #158 ) ;
#126 = PERSON_AND_ORGANIZATION ( #165, #160 ) ;
#127 = CIRCLE ( 'NONE', #70, 0.9500000000000002887 ) ;
#128 = ORIENTED_EDGE ( 'NONE', *, *, #119, .F. ) ;
#129 = FACE_OUTER_BOUND ( 'NONE', #10, .T. ) ;
#130 = ADVANCED_FACE ( 'NONE', ( #189 ), #123, .T. ) ;
#131 = ORIENTED_EDGE ( 'NONE', *, *, #25, .T. ) ;
#132 = DIRECTION ( 'NONE',  ( -0.0000000000000000000, -0.0000000000000000000, 1.000000000000000000 ) ) ;
#133 = FACE_OUTER_BOUND ( 'NONE', #281, .T. ) ;
#134 = AXIS2_PLACEMENT_3D ( 'NONE', #254, #185, #210 ) ;
#135 = DIRECTION ( 'NONE',  ( -1.000000000000000000, 0.0000000000000000000, 0.0000000000000000000 ) ) ;
#136 = ORIENTED_EDGE ( 'NONE', *, *, #285, .F. ) ;
#137 = CYLINDRICAL_SURFACE ( 'NONE', #247, 1.000000000000000000 ) ;
#138 = ORIENTED_EDGE ( 'NONE', *, *, #191, .F. ) ;
#139 = EDGE_CURVE ( 'NONE', #182, #252, #193, .T. ) ;
#140 = DIRECTION ( 'NONE',  ( -0.0000000000000000000, -0.0000000000000000000, 1.000000000000000000 ) ) ;
#141 = DIRECTION ( 'NONE',  ( -0.0000000000000000000, -0.0000000000000000000, 1.000000000000000000 ) ) ;
#142 = AXIS2_PLACEMENT_3D ( 'NONE', #71, #121, #148 ) ;
#143 = CARTESIAN_POINT ( 'NONE',  ( 0.8809930818723208379, 0.8645466400338372992, 2.085945967763427777 ) ) ;
#144 = DIRECTION ( 'NONE',  ( -0.0000000000000000000, -0.0000000000000000000, 1.000000000000000000 ) ) ;
#145 = APPLICATION_PROTOCOL_DEFINITION ( 'international standard', 'config_control_design', 1994, #268 ) ;
#146 = DIRECTION ( 'NONE',  ( 1.000000000000000000, 0.0000000000000000000, 0.0000000000000000000 ) ) ;
#147 = ORIENTED_EDGE ( 'NONE', *, *, #276, .F. ) ;
#148 = DIRECTION ( 'NONE',  ( 1.000000000000000000, 0.0000000000000000000, 0.0000000000000000000 ) ) ;
#149 = ORIENTED_EDGE ( 'NONE', *, *, #274, .F. ) ;
#150 = DIRECTION ( 'NONE',  ( -0.0000000000000000000, -0.0000000000000000000, 1.000000000000000000 ) ) ;
#151 = AXIS2_PLACEMENT_3D ( 'NONE', #291, #144, #264 ) ;
#152 = APPROVAL_PERSON_ORGANIZATION ( #169, #289, #243 ) ;
#153 = ORIENTED_EDGE ( 'NONE', *, *, #175, .T. ) ;
#154 = APPROVAL_DATE_TIME ( #222, #36 ) ;
#155 = VERTEX_POINT ( 'NONE', #143 ) ;
#156 = CARTESIAN_POINT ( 'NONE',  ( 0.8809930818723208379, 0.8645466400338371882, 1.770721286284215656 ) ) ;
#157 = AXIS2_PLACEMENT_3D ( 'NONE', #318, #168, #286 ) ;
#158 = DIRECTION ( 'NONE',  ( 1.000000000000000000, 0.0000000000000000000, 0.0000000000000000000 ) ) ;
#159 = ORIENTED_EDGE ( 'NONE', *, *, #258, .T. ) ;
#160 = ORGANIZATION ( 'UNSPECIFIED', 'UNSPECIFIED', '' ) ;
#161 = CIRCLE ( 'NONE', #200, 0.9500000000000000666 ) ;
#162 = DIRECTION ( 'NONE',  ( 0.0000000000000000000, 1.000000000000000000, 0.0000000000000000000 ) ) ;
#163 = PRODUCT_RELATED_PRODUCT_CATEGORY ( 'detail', '', ( #108 ) ) ;
#164 = CARTESIAN_POINT ( 'NONE',  ( 0.8809930818723208379, 0.8645466400338371882, 1.770721286284215656 ) ) ;
#165 = PERSON ( 'UNSPECIFIED', 'UNSPECIFIED', 'UNSPECIFIED', ('UNSPECIFIED'), ('UNSPECIFIED'), ('UNSPECIFIED') ) ;
#166 = DIRECTION ( 'NONE',  ( 0.0000000000000000000, 1.000000000000000000, 0.0000000000000000000 ) ) ;
#167 = ORIENTED_EDGE ( 'NONE', *, *, #55, .F. ) ;
#168 = DIRECTION ( 'NONE',  ( -0.0000000000000000000, -0.0000000000000000000, 1.000000000000000000 ) ) ;
#169 = PERSON_AND_ORGANIZATION ( #165, #160 ) ;
#170 = EDGE_CURVE ( 'NONE', #182, #220, #99, .T. ) ;
#171 = APPROVAL_STATUS ( 'not_yet_approved' ) ;
#172 = DATE_AND_TIME ( #295, #181 ) ;
#173 = FACE_OUTER_BOUND ( 'NONE', #124, .T. ) ;
#174 = SECURITY_CLASSIFICATION_LEVEL ( 'unclassified' ) ;
#175 = EDGE_CURVE ( 'NONE', #220, #92, #178, .T. ) ;
#176 = CLOSED_SHELL ( 'NONE', ( #83, #130, #278, #15, #107, #280, #11, #111, #208 ) ) ;
#177 = APPROVAL_PERSON_ORGANIZATION ( #42, #36, #72 ) ;
#178 = CIRCLE ( 'NONE', #102, 1.000000000000000000 ) ;
#179 = MANIFOLD_SOLID_BREP ( 'TTN162779-1-solid1', #176 ) ;
#180 = PRODUCT_DEFINITION ( 'UNKNOWN', '', #251, #202 ) ;
#181 = LOCAL_TIME ( 10, 18, 34.00000000000000000, #186 ) ;
#182 = VERTEX_POINT ( 'NONE', #91 ) ;
#183 = CARTESIAN_POINT ( 'NONE',  ( -0.06900691812767939526, 0.8645466400338371882, 1.820721286284215479 ) ) ;
#184 = EDGE_LOOP ( 'NONE', ( #22, #149, #205, #18, #153 ) ) ;
#185 = DIRECTION ( 'NONE',  ( 1.000000000000000000, 0.0000000000000000000, 0.0000000000000000000 ) ) ;
#186 = COORDINATED_UNIVERSAL_TIME_OFFSET ( 5, 0, .BEHIND. ) ;
#187 = CARTESIAN_POINT ( 'NONE',  ( 0.8809930818723208379, 1.814546640033837255, 1.820721286284215479 ) ) ;
#188 =( GEOMETRIC_REPRESENTATION_CONTEXT ( 3 ) GLOBAL_UNCERTAINTY_ASSIGNED_CONTEXT ( ( #265 ) ) GLOBAL_UNIT_ASSIGNED_CONTEXT ( ( #198, #48, #117 ) ) REPRESENTATION_CONTEXT ( 'NONE', 'WORKASPACE' ) );
#189 = FACE_OUTER_BOUND ( 'NONE', #2, .T. ) ;
#190 = CARTESIAN_POINT ( 'NONE',  ( 1.880993081872320838, 0.8645466400338372992, 1.770721286284215656 ) ) ;
#191 = EDGE_CURVE ( 'NONE', #207, #192, #127, .T. ) ;
#192 = VERTEX_POINT ( 'NONE', #293 ) ;
#193 = CIRCLE ( 'NONE', #151, 1.000000000000000000 ) ;
#194 = DIRECTION ( 'NONE',  ( -0.7071067811865467956, 0.0000000000000000000, -0.7071067811865483499 ) ) ;
#195 = ORIENTED_EDGE ( 'NONE', *, *, #230, .T. ) ;
#196 = CARTESIAN_POINT ( 'NONE',  ( 0.8809930818723208379, 0.8645466400338371882, 1.085945967763427555 ) ) ;
#197 = EDGE_CURVE ( 'NONE', #35, #220, #106, .T. ) ;
#198 =( LENGTH_UNIT ( ) NAMED_UNIT ( * ) SI_UNIT ( .MILLI., .METRE. ) );
#199 = LINE ( 'NONE', #190, #34 ) ;
#200 = AXIS2_PLACEMENT_3D ( 'NONE', #273, #27, #146 ) ;
#201 = LINE ( 'NONE', #218, #4 ) ;
#202 = DESIGN_CONTEXT ( 'detailed design', #1, 'design' ) ;
#203 = EDGE_CURVE ( 'NONE', #35, #248, #314, .T. ) ;
#204 = PERSON_AND_ORGANIZATION ( #165, #160 ) ;
#205 = ORIENTED_EDGE ( 'NONE', *, *, #203, .F. ) ;
#206 = CARTESIAN_POINT ( 'NONE',  ( 0.8809930818723208379, 0.8645466400338371882, 2.085945967763427777 ) ) ;
#207 = VERTEX_POINT ( 'NONE', #23 ) ;
#208 = ADVANCED_FACE ( 'NONE', ( #173 ), #114, .T. ) ;
#209 = DIRECTION ( 'NONE',  ( -1.000000000000000000, 0.0000000000000000000, 0.0000000000000000000 ) ) ;
#210 = DIRECTION ( 'NONE',  ( 0.0000000000000000000, 0.0000000000000000000, -1.000000000000000000 ) ) ;
#211 = EDGE_LOOP ( 'NONE', ( #86, #8 ) ) ;
#212 = PERSON_AND_ORGANIZATION ( #165, #160 ) ;
#213 = ORIENTED_EDGE ( 'NONE', *, *, #139, .T. ) ;
#214 = CC_DESIGN_PERSON_AND_ORGANIZATION_ASSIGNMENT ( #87, #296, ( #180 ) ) ;
#215 = CARTESIAN_POINT ( 'NONE',  ( 1.880993081872320838, 0.8645466400338371882, 1.135945967763427822 ) ) ;
#216 = DIRECTION ( 'NONE',  ( 1.000000000000000000, 0.0000000000000000000, 0.0000000000000000000 ) ) ;
#217 = CARTESIAN_POINT ( 'NONE',  ( -0.1190069181276791899, 0.8645466400338371882, 1.770721286284215656 ) ) ;
#218 = CARTESIAN_POINT ( 'NONE',  ( 1.880993081872320838, 0.8645466400338371882, 2.085945967763427777 ) ) ;
#219 = AXIS2_PLACEMENT_3D ( 'NONE', #232, #135, #162 ) ;
#220 = VERTEX_POINT ( 'NONE', #17 ) ;
#221 = CARTESIAN_POINT ( 'NONE',  ( 0.8809930818723208379, 0.8645466400338371882, 1.820721286284215479 ) ) ;
#222 = DATE_AND_TIME ( #32, #290 ) ;
#223 = DATE_AND_TIME ( #237, #16 ) ;
#224 = CC_DESIGN_APPROVAL ( #272, ( #251 ) ) ;
#225 = LOCAL_TIME ( 10, 18, 34.00000000000000000, #112 ) ;
#226 = PERSON_AND_ORGANIZATION ( #165, #160 ) ;
#227 = CIRCLE ( 'NONE', #61, 0.9500000000000000666 ) ;
#228 = DIRECTION ( 'NONE',  ( 1.000000000000000000, 0.0000000000000000000, 0.0000000000000000000 ) ) ;
#229 = CC_DESIGN_PERSON_AND_ORGANIZATION_ASSIGNMENT ( #309, #245, ( #65 ) ) ;
#230 = EDGE_CURVE ( 'NONE', #248, #155, #257, .T. ) ;
#231 = VECTOR ( 'NONE', #56, 1000.000000000000000 ) ;
#232 = CARTESIAN_POINT ( 'NONE',  ( 0.8809930818723208379, 0.8645466400338371882, 0.2519459677634274808 ) ) ;
#233 = ORIENTED_EDGE ( 'NONE', *, *, #170, .F. ) ;
#234 = AXIS2_PLACEMENT_3D ( 'NONE', #288, #141, #216 ) ;
#235 = DIRECTION ( 'NONE',  ( -0.0000000000000000000, -0.0000000000000000000, 1.000000000000000000 ) ) ;
#236 = CARTESIAN_POINT ( 'NONE',  ( 0.8809930818723208379, 0.8645466400338371882, 1.770721286284215656 ) ) ;
#237 = CALENDAR_DATE ( 2019, 24, 10 ) ;
#238 = DIRECTION ( 'NONE',  ( 1.000000000000000000, 0.0000000000000000000, 0.0000000000000000000 ) ) ;
#239 = CC_DESIGN_SECURITY_CLASSIFICATION ( #65, ( #251 ) ) ;
#240 = APPROVAL_STATUS ( 'not_yet_approved' ) ;
#241 = DATE_AND_TIME ( #19, #75 ) ;
#242 = CYLINDRICAL_SURFACE ( 'NONE', #305, 1.000000000000000000 ) ;
#243 = APPROVAL_ROLE ( '' ) ;
#244 = EDGE_LOOP ( 'NONE', ( #167, #40, #128, #62 ) ) ;
#245 = PERSON_AND_ORGANIZATION_ROLE ( 'classification_officer' ) ;
#246 = VECTOR ( 'NONE', #140, 1000.000000000000000 ) ;
#247 = AXIS2_PLACEMENT_3D ( 'NONE', #206, #58, #228 ) ;
#248 = VERTEX_POINT ( 'NONE', #46 ) ;
#249 = DATE_AND_TIME ( #255, #225 ) ;
#250 = FACE_OUTER_BOUND ( 'NONE', #302, .T. ) ;
#251 = PRODUCT_DEFINITION_FORMATION_WITH_SPECIFIED_SOURCE ( 'ANY', '', #108, .NOT_KNOWN. ) ;
#252 = VERTEX_POINT ( 'NONE', #215 ) ;
#253 = CARTESIAN_POINT ( 'NONE',  ( 1.880993081872320838, 0.8645466400338371882, 1.135945967763427822 ) ) ;
#254 = CARTESIAN_POINT ( 'NONE',  ( 0.8809930818723208379, 0.8645466400338371882, 0.2519459677634274808 ) ) ;
#255 = CALENDAR_DATE ( 2019, 24, 10 ) ;
#256 = CC_DESIGN_PERSON_AND_ORGANIZATION_ASSIGNMENT ( #204, #50, ( #251 ) ) ;
#257 = CIRCLE ( 'NONE', #81, 1.834000000000000075 ) ;
#258 = EDGE_CURVE ( 'NONE', #92, #220, #320, .T. ) ;
#259 = DIRECTION ( 'NONE',  ( -0.0000000000000000000, -0.0000000000000000000, 1.000000000000000000 ) ) ;
#260 = FACE_OUTER_BOUND ( 'NONE', #244, .T. ) ;
#261 = DIRECTION ( 'NONE',  ( -1.000000000000000000, 1.224646799147353207E-16, 0.0000000000000000000 ) ) ;
#262 = AXIS2_PLACEMENT_3D ( 'NONE', #80, #279, #38 ) ;
#263 = DIRECTION ( 'NONE',  ( 1.000000000000000000, 0.0000000000000000000, 0.0000000000000000000 ) ) ;
#264 = DIRECTION ( 'NONE',  ( 1.000000000000000000, 0.0000000000000000000, 0.0000000000000000000 ) ) ;
#265 = UNCERTAINTY_MEASURE_WITH_UNIT (LENGTH_MEASURE( 1.000000000000000082E-05 ), #198, 'distance_accuracy_value', 'NONE');
#266 = VECTOR ( 'NONE', #287, 1000.000000000000000 ) ;
#267 = AXIS2_PLACEMENT_3D ( 'NONE', #282, #13, #85 ) ;
#268 = APPLICATION_CONTEXT ( 'configuration controlled 3d designs of mechanical parts and assemblies' ) ;
#269 = MECHANICAL_CONTEXT ( 'NONE', #268, 'mechanical' ) ;
#270 = APPROVAL_DATE_TIME ( #172, #272 ) ;
#271 = ORIENTED_EDGE ( 'NONE', *, *, #303, .F. ) ;
#272 = APPROVAL ( #240, 'UNSPECIFIED' ) ;
#273 = CARTESIAN_POINT ( 'NONE',  ( 0.8809930818723208379, 0.8645466400338371882, 1.820721286284215479 ) ) ;
#274 = EDGE_CURVE ( 'NONE', #248, #30, #307, .T. ) ;
#275 = ORIENTED_EDGE ( 'NONE', *, *, #84, .F. ) ;
#276 = EDGE_CURVE ( 'NONE', #192, #182, #301, .T. ) ;
#277 = ORIENTED_EDGE ( 'NONE', *, *, #321, .F. ) ;
#278 = ADVANCED_FACE ( 'NONE', ( #250 ), #297, .T. ) ;
#279 = DIRECTION ( 'NONE',  ( 0.0000000000000000000, 0.0000000000000000000, -1.000000000000000000 ) ) ;
#280 = ADVANCED_FACE ( 'NONE', ( #118 ), #242, .T. ) ;
#281 = EDGE_LOOP ( 'NONE', ( #33, #122, #304, #136 ) ) ;
#282 = CARTESIAN_POINT ( 'NONE',  ( 0.8809930818723208379, 0.8645466400338371882, 1.085945967763427555 ) ) ;
#283 = CARTESIAN_POINT ( 'NONE',  ( 0.8809930818723208379, 0.8645466400338371882, 1.135945967763427822 ) ) ;
#284 = FACE_OUTER_BOUND ( 'NONE', #184, .T. ) ;
#285 = EDGE_CURVE ( 'NONE', #252, #92, #201, .T. ) ;
#286 = DIRECTION ( 'NONE',  ( 1.000000000000000000, 0.0000000000000000000, 0.0000000000000000000 ) ) ;
#287 = DIRECTION ( 'NONE',  ( -0.7071067811865444641, 8.659560562354895880E-17, 0.7071067811865505703 ) ) ;
#288 = CARTESIAN_POINT ( 'NONE',  ( 0.8809930818723208379, 0.8645466400338371882, 1.820721286284215479 ) ) ;
#289 = APPROVAL ( #171, 'UNSPECIFIED' ) ;
#290 = LOCAL_TIME ( 10, 18, 34.00000000000000000, #98 ) ;
#291 = CARTESIAN_POINT ( 'NONE',  ( 0.8809930818723208379, 0.8645466400338371882, 1.135945967763427822 ) ) ;
#292 = CC_DESIGN_DATE_AND_TIME_ASSIGNMENT ( #249, #299, ( #65 ) ) ;
#293 = CARTESIAN_POINT ( 'NONE',  ( -0.06900691812767949240, 0.8645466400338372992, 1.085945967763427555 ) ) ;
#294 = DATE_TIME_ROLE ( 'creation_date' ) ;
#295 = CALENDAR_DATE ( 2019, 24, 10 ) ;
#296 = PERSON_AND_ORGANIZATION_ROLE ( 'creator' ) ;
#297 = CONICAL_SURFACE ( 'NONE', #12, 1.000000000000000000, 0.7853981633974472798 ) ;
#298 = APPLICATION_PROTOCOL_DEFINITION ( 'international standard', 'config_control_design', 1994, #1 ) ;
#299 = DATE_TIME_ROLE ( 'classification_date' ) ;
#300 = AXIS2_PLACEMENT_3D ( 'NONE', #88, #259, #113 ) ;
#301 = LINE ( 'NONE', #93, #266 ) ;
#302 = EDGE_LOOP ( 'NONE', ( #277, #306, #159, #14, #271 ) ) ;
#303 = EDGE_CURVE ( 'NONE', #74, #35, #227, .T. ) ;
#304 = ORIENTED_EDGE ( 'NONE', *, *, #258, .F. ) ;
#305 = AXIS2_PLACEMENT_3D ( 'NONE', #52, #150, #96 ) ;
#306 = ORIENTED_EDGE ( 'NONE', *, *, #104, .T. ) ;
#307 = CIRCLE ( 'NONE', #234, 0.9500000000000000666 ) ;
#308 = EDGE_LOOP ( 'NONE', ( #233, #213, #53, #54 ) ) ;
#309 = PERSON_AND_ORGANIZATION ( #165, #160 ) ;
#310 = CIRCLE ( 'NONE', #262, 0.9500000000000002887 ) ;
#311 = CARTESIAN_POINT ( 'NONE',  ( 1.830993081872321238, 0.8645466400338372992, 1.820721286284215479 ) ) ;
#312 = DIRECTION ( 'NONE',  ( -0.0000000000000000000, -0.0000000000000000000, 1.000000000000000000 ) ) ;
#313 = APPROVAL_PERSON_ORGANIZATION ( #126, #272, #94 ) ;
#314 = CIRCLE ( 'NONE', #300, 0.9500000000000000666 ) ;
#315 = AXIS2_PLACEMENT_3D ( 'NONE', #115, #235, #238 ) ;
#316 = DIRECTION ( 'NONE',  ( 1.000000000000000000, 0.0000000000000000000, 0.0000000000000000000 ) ) ;
#317 = CARTESIAN_POINT ( 'NONE',  ( -0.1190069181276791899, 0.8645466400338372992, 2.085945967763427777 ) ) ;
#318 = CARTESIAN_POINT ( 'NONE',  ( 0.8809930818723208379, 0.8645466400338371882, 1.135945967763427822 ) ) ;
#319 = PERSON_AND_ORGANIZATION_ROLE ( 'creator' ) ;
#320 = CIRCLE ( 'NONE', #116, 1.000000000000000000 ) ;
#321 = EDGE_CURVE ( 'NONE', #30, #74, #161, .T. ) ;
ENDSEC;
END-ISO-10303-21;
