ISO-10303-21;
HEADER;
FILE_DESCRIPTION (( 'STEP AP203' ),
    '1' );
FILE_NAME ('Web Model 64397MX_43737.step',
    '2017-10-30T12:59:32',
    ( '' ),
    ( '' ),
    'SwSTEP 2.0',
    'SolidWorks 2016',
    '' );
FILE_SCHEMA (( 'CONFIG_CONTROL_DESIGN' ));
ENDSEC;

DATA;
#1 = PLANE ( 'NONE',  #233 ) ;
#2 = PERSON_AND_ORGANIZATION_ROLE ( 'design_supplier' ) ;
#3 = CARTESIAN_POINT ( 'NONE',  ( 6.349999999999998800, -6.349999999999998800, -3.000000000000000000 ) ) ;
#4 =( LENGTH_UNIT ( ) NAMED_UNIT ( * ) SI_UNIT ( .MILLI., .METRE. ) );
#5 = PERSON_AND_ORGANIZATION ( #50, #97 ) ;
#6 = DIRECTION ( 'NONE',  ( -0.0000000000000000000, -0.0000000000000000000, -1.000000000000000000 ) ) ;
#7 = DIRECTION ( 'NONE',  ( 1.000000000000000000, 1.365923996832131600E-016, 0.0000000000000000000 ) ) ;
#8 = CC_DESIGN_PERSON_AND_ORGANIZATION_ASSIGNMENT ( #141, #37, ( #134 ) ) ;
#9 = DIRECTION ( 'NONE',  ( 0.0000000000000000000, 1.000000000000000000, 0.0000000000000000000 ) ) ;
#10 = ORIENTED_EDGE ( 'NONE', *, *, #25, .T. ) ;
#11 = VECTOR ( 'NONE', #221, 1000.000000000000000 ) ;
#12 = LOCAL_TIME ( 8, 59, 32.00000000000000000, #66 ) ;
#13 = ADVANCED_FACE ( 'NONE', ( #218 ), #129, .F. ) ;
#14 = AXIS2_PLACEMENT_3D ( 'NONE', #89, #201, #101 ) ;
#15 = APPROVAL_PERSON_ORGANIZATION ( #27, #142, #102 ) ;
#16 = VECTOR ( 'NONE', #172, 1000.000000000000000 ) ;
#17 = DIRECTION ( 'NONE',  ( -0.0000000000000000000, -0.0000000000000000000, -1.000000000000000000 ) ) ;
#18 = CARTESIAN_POINT ( 'NONE',  ( 6.349999999999998800, 6.350000000000000500, -3.000000000000000000 ) ) ;
#19 = ORIENTED_EDGE ( 'NONE', *, *, #190, .T. ) ;
#20 = CALENDAR_DATE ( 2017, 30, 10 ) ;
#21 = SECURITY_CLASSIFICATION_LEVEL ( 'unclassified' ) ;
#22 = CARTESIAN_POINT ( 'NONE',  ( 6.349999999999998800, -6.349999999999998800, 3.000000000000000000 ) ) ;
#23 = FACE_OUTER_BOUND ( 'NONE', #83, .T. ) ;
#24 = CARTESIAN_POINT ( 'NONE',  ( -6.350000000000000500, 6.349999999999998800, -3.000000000000000000 ) ) ;
#25 = EDGE_CURVE ( 'NONE', #158, #183, #200, .T. ) ;
#26 = ADVANCED_FACE ( 'NONE', ( #127 ), #184, .F. ) ;
#27 = PERSON_AND_ORGANIZATION ( #50, #97 ) ;
#28 = AXIS2_PLACEMENT_3D ( 'NONE', #237, #171, #57 ) ;
#29 = ORIENTED_EDGE ( 'NONE', *, *, #116, .F. ) ;
#30 = SECURITY_CLASSIFICATION ( '', '', #21 ) ;
#31 = ORIENTED_EDGE ( 'NONE', *, *, #147, .T. ) ;
#32 = APPROVAL_PERSON_ORGANIZATION ( #43, #139, #222 ) ;
#33 = CARTESIAN_POINT ( 'NONE',  ( -6.350000000000000500, -6.350000000000000500, -3.000000000000000000 ) ) ;
#34 = CARTESIAN_POINT ( 'NONE',  ( 6.349999999999998800, -6.349999999999998800, 3.000000000000000000 ) ) ;
#35 = ORIENTED_EDGE ( 'NONE', *, *, #179, .T. ) ;
#36 = CALENDAR_DATE ( 2017, 30, 10 ) ;
#37 = PERSON_AND_ORGANIZATION_ROLE ( 'creator' ) ;
#38 = LOCAL_TIME ( 8, 59, 32.00000000000000000, #206 ) ;
#39 = DIRECTION ( 'NONE',  ( 1.000000000000000000, 0.0000000000000000000, -0.0000000000000000000 ) ) ;
#40 = PLANE ( 'NONE',  #186 ) ;
#41 = ADVANCED_FACE ( 'NONE', ( #114 ), #1, .F. ) ;
#42 = LINE ( 'NONE', #3, #11 ) ;
#43 = PERSON_AND_ORGANIZATION ( #50, #97 ) ;
#44 = LINE ( 'NONE', #207, #108 ) ;
#45 = EDGE_LOOP ( 'NONE', ( #231, #199, #54, #144 ) ) ;
#46 = DATE_AND_TIME ( #115, #63 ) ;
#47 = EDGE_CURVE ( 'NONE', #163, #73, #95, .T. ) ;
#48 = FACE_OUTER_BOUND ( 'NONE', #99, .T. ) ;
#49 = DATE_AND_TIME ( #96, #12 ) ;
#50 = PERSON ( 'UNSPECIFIED', 'UNSPECIFIED', 'UNSPECIFIED', ('UNSPECIFIED'), ('UNSPECIFIED'), ('UNSPECIFIED') ) ;
#51 = EDGE_LOOP ( 'NONE', ( #10, #103, #204, #31 ) ) ;
#52 = PERSON_AND_ORGANIZATION_ROLE ( 'classification_officer' ) ;
#53 = DIRECTION ( 'NONE',  ( 0.0000000000000000000, -0.0000000000000000000, 1.000000000000000000 ) ) ;
#54 = ORIENTED_EDGE ( 'NONE', *, *, #179, .F. ) ;
#55 = CARTESIAN_POINT ( 'NONE',  ( 6.349999999999998800, 6.350000000000000500, -3.000000000000000000 ) ) ;
#56 = PERSON_AND_ORGANIZATION ( #50, #97 ) ;
#57 = DIRECTION ( 'NONE',  ( 1.000000000000000000, 0.0000000000000000000, 0.0000000000000000000 ) ) ;
#58 = CARTESIAN_POINT ( 'NONE',  ( -6.350000000000000500, -6.350000000000000500, -3.000000000000000000 ) ) ;
#59 = ORIENTED_EDGE ( 'NONE', *, *, #215, .T. ) ;
#60 = PERSON_AND_ORGANIZATION ( #50, #97 ) ;
#61 = FACE_OUTER_BOUND ( 'NONE', #45, .T. ) ;
#62 = CLOSED_SHELL ( 'NONE', ( #26, #112, #195, #41, #180, #13 ) ) ;
#63 = LOCAL_TIME ( 8, 59, 32.00000000000000000, #229 ) ;
#64 = LINE ( 'NONE', #92, #91 ) ;
#65 = PRODUCT_DEFINITION_SHAPE ( 'NONE', 'NONE',  #124 ) ;
#66 = COORDINATED_UNIVERSAL_TIME_OFFSET ( 5, 0, .BEHIND. ) ;
#67 = APPLICATION_CONTEXT ( 'configuration controlled 3d designs of mechanical parts and assemblies' ) ;
#68 = CARTESIAN_POINT ( 'NONE',  ( 6.349999999999998800, 6.350000000000000500, 3.000000000000000000 ) ) ;
#69 = VECTOR ( 'NONE', #121, 1000.000000000000000 ) ;
#70 = PRODUCT ( 'Web Model 64397MX_43737', 'Web Model 64397MX_43737', '', ( #151 ) ) ;
#71 = APPROVAL_STATUS ( 'not_yet_approved' ) ;
#72 = PLANE ( 'NONE',  #162 ) ;
#73 = VERTEX_POINT ( 'NONE', #203 ) ;
#74 = DIRECTION ( 'NONE',  ( -1.000000000000000000, -1.365923996832131600E-016, 0.0000000000000000000 ) ) ;
#75 = ORIENTED_EDGE ( 'NONE', *, *, #76, .T. ) ;
#76 = EDGE_CURVE ( 'NONE', #120, #140, #42, .T. ) ;
#77 = ORIENTED_EDGE ( 'NONE', *, *, #76, .F. ) ;
#78 = VECTOR ( 'NONE', #17, 1000.000000000000000 ) ;
#79 = ORIENTED_EDGE ( 'NONE', *, *, #226, .F. ) ;
#80 = LOCAL_TIME ( 8, 59, 32.00000000000000000, #232 ) ;
#81 = EDGE_LOOP ( 'NONE', ( #178, #29, #182, #59 ) ) ;
#82 = CC_DESIGN_PERSON_AND_ORGANIZATION_ASSIGNMENT ( #56, #86, ( #124 ) ) ;
#83 = EDGE_LOOP ( 'NONE', ( #135, #19, #35, #228 ) ) ;
#84 = PERSON_AND_ORGANIZATION_ROLE ( 'design_owner' ) ;
#85 = CARTESIAN_POINT ( 'NONE',  ( 6.349999999999998800, 6.350000000000000500, 3.000000000000000000 ) ) ;
#86 = PERSON_AND_ORGANIZATION_ROLE ( 'creator' ) ;
#87 = CARTESIAN_POINT ( 'NONE',  ( -6.350000000000000500, -6.350000000000000500, 3.000000000000000000 ) ) ;
#88 =( NAMED_UNIT ( * ) PLANE_ANGLE_UNIT ( ) SI_UNIT ( $, .RADIAN. ) );
#89 = CARTESIAN_POINT ( 'NONE',  ( 6.349999999999998800, -6.349999999999998800, 3.000000000000000000 ) ) ;
#90 = VERTEX_POINT ( 'NONE', #68 ) ;
#91 = VECTOR ( 'NONE', #6, 1000.000000000000000 ) ;
#92 = CARTESIAN_POINT ( 'NONE',  ( -6.350000000000000500, 6.349999999999998800, 3.000000000000000000 ) ) ;
#93 = DIRECTION ( 'NONE',  ( 0.0000000000000000000, 0.0000000000000000000, 1.000000000000000000 ) ) ;
#94 = EDGE_LOOP ( 'NONE', ( #196, #188, #176, #77 ) ) ;
#95 = LINE ( 'NONE', #155, #69 ) ;
#96 = CALENDAR_DATE ( 2017, 30, 10 ) ;
#97 = ORGANIZATION ( 'UNSPECIFIED', 'UNSPECIFIED', '' ) ;
#98 = ADVANCED_BREP_SHAPE_REPRESENTATION ( 'Web Model 64397MX_43737', ( #167, #28 ), #177 ) ;
#99 = EDGE_LOOP ( 'NONE', ( #75, #79, #181, #235 ) ) ;
#100 = APPROVAL_DATE_TIME ( #174, #142 ) ;
#101 = DIRECTION ( 'NONE',  ( -1.000000000000000000, -1.365923996832131600E-016, 0.0000000000000000000 ) ) ;
#102 = APPROVAL_ROLE ( '' ) ;
#103 = ORIENTED_EDGE ( 'NONE', *, *, #215, .F. ) ;
#104 = CARTESIAN_POINT ( 'NONE',  ( 0.0000000000000000000, 0.0000000000000000000, -3.000000000000000000 ) ) ;
#105 = CARTESIAN_POINT ( 'NONE',  ( 6.349999999999998800, 6.350000000000000500, 3.000000000000000000 ) ) ;
#106 = EDGE_CURVE ( 'NONE', #183, #120, #118, .T. ) ;
#107 = DIRECTION ( 'NONE',  ( 0.0000000000000000000, -0.0000000000000000000, 1.000000000000000000 ) ) ;
#108 = VECTOR ( 'NONE', #185, 1000.000000000000000 ) ;
#109 = PRODUCT_RELATED_PRODUCT_CATEGORY ( 'detail', '', ( #70 ) ) ;
#110 = PERSON_AND_ORGANIZATION ( #50, #97 ) ;
#111 = CC_DESIGN_PERSON_AND_ORGANIZATION_ASSIGNMENT ( #60, #84, ( #70 ) ) ;
#112 = ADVANCED_FACE ( 'NONE', ( #48 ), #123, .F. ) ;
#113 = CC_DESIGN_DATE_AND_TIME_ASSIGNMENT ( #46, #149, ( #30 ) ) ;
#114 = FACE_OUTER_BOUND ( 'NONE', #51, .T. ) ;
#115 = CALENDAR_DATE ( 2017, 30, 10 ) ;
#116 = EDGE_CURVE ( 'NONE', #73, #120, #216, .T. ) ;
#117 = CC_DESIGN_DATE_AND_TIME_ASSIGNMENT ( #49, #145, ( #124 ) ) ;
#118 = LINE ( 'NONE', #58, #211 ) ;
#119 = DIRECTION ( 'NONE',  ( -1.000000000000000000, -1.365923996832131600E-016, 0.0000000000000000000 ) ) ;
#120 = VERTEX_POINT ( 'NONE', #33 ) ;
#121 = DIRECTION ( 'NONE',  ( -0.0000000000000000000, -1.000000000000000000, -0.0000000000000000000 ) ) ;
#122 = APPROVAL_ROLE ( '' ) ;
#123 = PLANE ( 'NONE',  #14 ) ;
#124 = PRODUCT_DEFINITION ( 'UNKNOWN', '', #134, #132 ) ;
#125 = DIRECTION ( 'NONE',  ( 1.365923996832131600E-016, -1.000000000000000000, 0.0000000000000000000 ) ) ;
#126 = APPLICATION_PROTOCOL_DEFINITION ( 'international standard', 'config_control_design', 1994, #67 ) ;
#127 = FACE_OUTER_BOUND ( 'NONE', #81, .T. ) ;
#128 = PERSON_AND_ORGANIZATION ( #50, #97 ) ;
#129 = PLANE ( 'NONE',  #214 ) ;
#130 = VECTOR ( 'NONE', #74, 1000.000000000000000 ) ;
#131 = CC_DESIGN_APPROVAL ( #139, ( #30 ) ) ;
#132 = DESIGN_CONTEXT ( 'detailed design', #146, 'design' ) ;
#133 = DIRECTION ( 'NONE',  ( 1.000000000000000000, 0.0000000000000000000, -0.0000000000000000000 ) ) ;
#134 = PRODUCT_DEFINITION_FORMATION_WITH_SPECIFIED_SOURCE ( 'ANY', '', #70, .NOT_KNOWN. ) ;
#135 = ORIENTED_EDGE ( 'NONE', *, *, #47, .T. ) ;
#136 = APPROVAL_DATE_TIME ( #236, #139 ) ;
#137 = LINE ( 'NONE', #175, #130 ) ;
#138 = APPROVAL_DATE_TIME ( #197, #202 ) ;
#139 = APPROVAL ( #71, 'UNSPECIFIED' ) ;
#140 = VERTEX_POINT ( 'NONE', #219 ) ;
#141 = PERSON_AND_ORGANIZATION ( #50, #97 ) ;
#142 = APPROVAL ( #217, 'UNSPECIFIED' ) ;
#143 = LOCAL_TIME ( 8, 59, 32.00000000000000000, #198 ) ;
#144 = ORIENTED_EDGE ( 'NONE', *, *, #226, .T. ) ;
#145 = DATE_TIME_ROLE ( 'creation_date' ) ;
#146 = APPLICATION_CONTEXT ( 'configuration controlled 3d designs of mechanical parts and assemblies' ) ;
#147 = EDGE_CURVE ( 'NONE', #90, #158, #225, .T. ) ;
#148 = CARTESIAN_POINT ( 'NONE',  ( -6.350000000000000500, -6.350000000000000500, 3.000000000000000000 ) ) ;
#149 = DATE_TIME_ROLE ( 'classification_date' ) ;
#150 = VECTOR ( 'NONE', #119, 1000.000000000000000 ) ;
#151 = MECHANICAL_CONTEXT ( 'NONE', #67, 'mechanical' ) ;
#152 = LINE ( 'NONE', #22, #234 ) ;
#153 = CC_DESIGN_PERSON_AND_ORGANIZATION_ASSIGNMENT ( #128, #2, ( #134 ) ) ;
#154 = DIRECTION ( 'NONE',  ( 0.0000000000000000000, 1.000000000000000000, 0.0000000000000000000 ) ) ;
#155 = CARTESIAN_POINT ( 'NONE',  ( -6.350000000000000500, -6.350000000000000500, 3.000000000000000000 ) ) ;
#156 = DIRECTION ( 'NONE',  ( 1.000000000000000000, 1.365923996832131600E-016, -0.0000000000000000000 ) ) ;
#157 = SHAPE_DEFINITION_REPRESENTATION ( #65, #98 ) ;
#158 = VERTEX_POINT ( 'NONE', #55 ) ;
#159 = CALENDAR_DATE ( 2017, 30, 10 ) ;
#160 = CC_DESIGN_APPROVAL ( #142, ( #124 ) ) ;
#161 = CC_DESIGN_SECURITY_CLASSIFICATION ( #30, ( #134 ) ) ;
#162 = AXIS2_PLACEMENT_3D ( 'NONE', #189, #107, #133 ) ;
#163 = VERTEX_POINT ( 'NONE', #170 ) ;
#164 = VECTOR ( 'NONE', #9, 1000.000000000000000 ) ;
#165 = VECTOR ( 'NONE', #156, 1000.000000000000000 ) ;
#166 = CC_DESIGN_PERSON_AND_ORGANIZATION_ASSIGNMENT ( #110, #52, ( #30 ) ) ;
#167 = MANIFOLD_SOLID_BREP ( 'Boss-Extrude1', #62 ) ;
#168 = VERTEX_POINT ( 'NONE', #223 ) ;
#169 = DIRECTION ( 'NONE',  ( -0.0000000000000000000, -1.000000000000000000, -0.0000000000000000000 ) ) ;
#170 = CARTESIAN_POINT ( 'NONE',  ( -6.350000000000000500, 6.349999999999998800, 3.000000000000000000 ) ) ;
#171 = DIRECTION ( 'NONE',  ( 0.0000000000000000000, 0.0000000000000000000, 1.000000000000000000 ) ) ;
#172 = DIRECTION ( 'NONE',  ( -0.0000000000000000000, -0.0000000000000000000, -1.000000000000000000 ) ) ;
#173 = LINE ( 'NONE', #34, #165 ) ;
#174 = DATE_AND_TIME ( #159, #38 ) ;
#175 = CARTESIAN_POINT ( 'NONE',  ( 6.349999999999998800, 6.350000000000000500, 3.000000000000000000 ) ) ;
#176 = ORIENTED_EDGE ( 'NONE', *, *, #213, .F. ) ;
#177 =( GEOMETRIC_REPRESENTATION_CONTEXT ( 3 ) GLOBAL_UNCERTAINTY_ASSIGNED_CONTEXT ( ( #193 ) ) GLOBAL_UNIT_ASSIGNED_CONTEXT ( ( #4, #88, #220 ) ) REPRESENTATION_CONTEXT ( 'NONE', 'WORKASPACE' ) );
#178 = ORIENTED_EDGE ( 'NONE', *, *, #106, .T. ) ;
#179 = EDGE_CURVE ( 'NONE', #168, #90, #152, .T. ) ;
#180 = ADVANCED_FACE ( 'NONE', ( #23 ), #72, .T. ) ;
#181 = ORIENTED_EDGE ( 'NONE', *, *, #190, .F. ) ;
#182 = ORIENTED_EDGE ( 'NONE', *, *, #47, .F. ) ;
#183 = VERTEX_POINT ( 'NONE', #24 ) ;
#184 = PLANE ( 'NONE',  #192 ) ;
#185 = DIRECTION ( 'NONE',  ( -0.0000000000000000000, -0.0000000000000000000, -1.000000000000000000 ) ) ;
#186 = AXIS2_PLACEMENT_3D ( 'NONE', #210, #191, #93 ) ;
#187 = APPLICATION_PROTOCOL_DEFINITION ( 'international standard', 'config_control_design', 1994, #146 ) ;
#188 = ORIENTED_EDGE ( 'NONE', *, *, #25, .F. ) ;
#189 = CARTESIAN_POINT ( 'NONE',  ( 0.0000000000000000000, 0.0000000000000000000, 3.000000000000000000 ) ) ;
#190 = EDGE_CURVE ( 'NONE', #73, #168, #173, .T. ) ;
#191 = DIRECTION ( 'NONE',  ( -1.000000000000000000, 0.0000000000000000000, 0.0000000000000000000 ) ) ;
#192 = AXIS2_PLACEMENT_3D ( 'NONE', #148, #208, #224 ) ;
#193 = UNCERTAINTY_MEASURE_WITH_UNIT (LENGTH_MEASURE( 1.000000000000000100E-005 ), #4, 'distance_accuracy_value', 'NONE');
#194 = CC_DESIGN_APPROVAL ( #202, ( #134 ) ) ;
#195 = ADVANCED_FACE ( 'NONE', ( #61 ), #40, .F. ) ;
#196 = ORIENTED_EDGE ( 'NONE', *, *, #106, .F. ) ;
#197 = DATE_AND_TIME ( #36, #143 ) ;
#198 = COORDINATED_UNIVERSAL_TIME_OFFSET ( 5, 0, .BEHIND. ) ;
#199 = ORIENTED_EDGE ( 'NONE', *, *, #147, .F. ) ;
#200 = LINE ( 'NONE', #18, #150 ) ;
#201 = DIRECTION ( 'NONE',  ( -1.365923996832131600E-016, 1.000000000000000000, 0.0000000000000000000 ) ) ;
#202 = APPROVAL ( #205, 'UNSPECIFIED' ) ;
#203 = CARTESIAN_POINT ( 'NONE',  ( -6.350000000000000500, -6.350000000000000500, 3.000000000000000000 ) ) ;
#204 = ORIENTED_EDGE ( 'NONE', *, *, #212, .F. ) ;
#205 = APPROVAL_STATUS ( 'not_yet_approved' ) ;
#206 = COORDINATED_UNIVERSAL_TIME_OFFSET ( 5, 0, .BEHIND. ) ;
#207 = CARTESIAN_POINT ( 'NONE',  ( 6.349999999999998800, -6.349999999999998800, 3.000000000000000000 ) ) ;
#208 = DIRECTION ( 'NONE',  ( 1.000000000000000000, 0.0000000000000000000, 0.0000000000000000000 ) ) ;
#209 = LINE ( 'NONE', #227, #164 ) ;
#210 = CARTESIAN_POINT ( 'NONE',  ( 6.349999999999998800, -6.349999999999998800, 3.000000000000000000 ) ) ;
#211 = VECTOR ( 'NONE', #169, 1000.000000000000000 ) ;
#212 = EDGE_CURVE ( 'NONE', #90, #163, #137, .T. ) ;
#213 = EDGE_CURVE ( 'NONE', #140, #158, #209, .T. ) ;
#214 = AXIS2_PLACEMENT_3D ( 'NONE', #104, #53, #39 ) ;
#215 = EDGE_CURVE ( 'NONE', #163, #183, #64, .T. ) ;
#216 = LINE ( 'NONE', #87, #78 ) ;
#217 = APPROVAL_STATUS ( 'not_yet_approved' ) ;
#218 = FACE_OUTER_BOUND ( 'NONE', #94, .T. ) ;
#219 = CARTESIAN_POINT ( 'NONE',  ( 6.349999999999998800, -6.349999999999998800, -3.000000000000000000 ) ) ;
#220 =( NAMED_UNIT ( * ) SI_UNIT ( $, .STERADIAN. ) SOLID_ANGLE_UNIT ( ) );
#221 = DIRECTION ( 'NONE',  ( 1.000000000000000000, 1.365923996832131600E-016, -0.0000000000000000000 ) ) ;
#222 = APPROVAL_ROLE ( '' ) ;
#223 = CARTESIAN_POINT ( 'NONE',  ( 6.349999999999998800, -6.349999999999998800, 3.000000000000000000 ) ) ;
#224 = DIRECTION ( 'NONE',  ( 0.0000000000000000000, 0.0000000000000000000, -1.000000000000000000 ) ) ;
#225 = LINE ( 'NONE', #85, #16 ) ;
#226 = EDGE_CURVE ( 'NONE', #168, #140, #44, .T. ) ;
#227 = CARTESIAN_POINT ( 'NONE',  ( 6.349999999999998800, -6.349999999999998800, -3.000000000000000000 ) ) ;
#228 = ORIENTED_EDGE ( 'NONE', *, *, #212, .T. ) ;
#229 = COORDINATED_UNIVERSAL_TIME_OFFSET ( 5, 0, .BEHIND. ) ;
#230 = APPROVAL_PERSON_ORGANIZATION ( #5, #202, #122 ) ;
#231 = ORIENTED_EDGE ( 'NONE', *, *, #213, .T. ) ;
#232 = COORDINATED_UNIVERSAL_TIME_OFFSET ( 5, 0, .BEHIND. ) ;
#233 = AXIS2_PLACEMENT_3D ( 'NONE', #105, #125, #7 ) ;
#234 = VECTOR ( 'NONE', #154, 1000.000000000000000 ) ;
#235 = ORIENTED_EDGE ( 'NONE', *, *, #116, .T. ) ;
#236 = DATE_AND_TIME ( #20, #80 ) ;
#237 = CARTESIAN_POINT ( 'NONE',  ( 0.0000000000000000000, 0.0000000000000000000, 0.0000000000000000000 ) ) ;
ENDSEC;
END-ISO-10303-21;
