ISO-10303-21;
HEADER;
FILE_DESCRIPTION (( 'STEP AP203' ),
    '1' );
FILE_NAME ('36991_36997.step',
    '2017-09-06T15:14:59',
    ( '' ),
    ( '' ),
    'SwSTEP 2.0',
    'SolidWorks 2016',
    '' );
FILE_SCHEMA (( 'CONFIG_CONTROL_DESIGN' ));
ENDSEC;

DATA;
#1 = AXIS2_PLACEMENT_3D ( 'NONE', #135, #118, #170 ) ;
#2 = SHAPE_DEFINITION_REPRESENTATION ( #95, #39 ) ;
#3 = EDGE_LOOP ( 'NONE', ( #107, #137 ) ) ;
#4 = DIRECTION ( 'NONE',  ( -0.0000000000000000000, -0.0000000000000000000, -1.000000000000000000 ) ) ;
#5 = CARTESIAN_POINT ( 'NONE',  ( -12.50000000000000000, 0.0000000000000000000, -0.5000000000000000000 ) ) ;
#6 = DATE_AND_TIME ( #27, #45 ) ;
#7 = ORIENTED_EDGE ( 'NONE', *, *, #64, .F. ) ;
#8 = DIRECTION ( 'NONE',  ( 1.000000000000000000, 0.0000000000000000000, -0.0000000000000000000 ) ) ;
#9 = APPROVAL_PERSON_ORGANIZATION ( #21, #134, #38 ) ;
#10 = VERTEX_POINT ( 'NONE', #5 ) ;
#11 = PRODUCT_RELATED_PRODUCT_CATEGORY ( 'detail', '', ( #159 ) ) ;
#12 = PERSON_AND_ORGANIZATION ( #149, #152 ) ;
#13 = APPLICATION_CONTEXT ( 'configuration controlled 3d designs of mechanical parts and assemblies' ) ;
#14 = CIRCLE ( 'NONE', #31, 12.50000000000000000 ) ;
#15 =( NAMED_UNIT ( * ) PLANE_ANGLE_UNIT ( ) SI_UNIT ( $, .RADIAN. ) );
#16 = EDGE_CURVE ( 'NONE', #102, #10, #128, .T. ) ;
#17 = DATE_TIME_ROLE ( 'creation_date' ) ;
#18 = COORDINATED_UNIVERSAL_TIME_OFFSET ( 5, 0, .BEHIND. ) ;
#19 = ORIENTED_EDGE ( 'NONE', *, *, #79, .T. ) ;
#20 = APPROVAL ( #74, 'UNSPECIFIED' ) ;
#21 = PERSON_AND_ORGANIZATION ( #149, #152 ) ;
#22 = APPROVAL ( #123, 'UNSPECIFIED' ) ;
#23 = LOCAL_TIME ( 11, 14, 59.00000000000000000, #110 ) ;
#24 = CIRCLE ( 'NONE', #46, 12.50000000000000000 ) ;
#25 = APPROVAL_DATE_TIME ( #166, #22 ) ;
#26 = ORIENTED_EDGE ( 'NONE', *, *, #94, .T. ) ;
#27 = CALENDAR_DATE ( 2017, 6, 9 ) ;
#28 = APPLICATION_PROTOCOL_DEFINITION ( 'international standard', 'config_control_design', 1994, #13 ) ;
#29 = SECURITY_CLASSIFICATION_LEVEL ( 'unclassified' ) ;
#30 = APPLICATION_CONTEXT ( 'configuration controlled 3d designs of mechanical parts and assemblies' ) ;
#31 = AXIS2_PLACEMENT_3D ( 'NONE', #36, #108, #151 ) ;
#32 = PERSON_AND_ORGANIZATION ( #149, #152 ) ;
#33 = EDGE_LOOP ( 'NONE', ( #61, #7, #161, #174 ) ) ;
#34 = CARTESIAN_POINT ( 'NONE',  ( 0.0000000000000000000, 0.0000000000000000000, -0.5000000000000000000 ) ) ;
#35 = VERTEX_POINT ( 'NONE', #81 ) ;
#36 = CARTESIAN_POINT ( 'NONE',  ( 0.0000000000000000000, 0.0000000000000000000, 0.5000000000000000000 ) ) ;
#37 = APPLICATION_PROTOCOL_DEFINITION ( 'international standard', 'config_control_design', 1994, #30 ) ;
#38 = APPROVAL_ROLE ( '' ) ;
#39 = ADVANCED_BREP_SHAPE_REPRESENTATION ( '36991_36997', ( #175, #92 ), #105 ) ;
#40 =( NAMED_UNIT ( * ) SI_UNIT ( $, .STERADIAN. ) SOLID_ANGLE_UNIT ( ) );
#41 = AXIS2_PLACEMENT_3D ( 'NONE', #84, #56, #72 ) ;
#42 = ADVANCED_FACE ( 'NONE', ( #136 ), #172, .T. ) ;
#43 = CALENDAR_DATE ( 2017, 6, 9 ) ;
#44 = CARTESIAN_POINT ( 'NONE',  ( -12.50000000000000000, 0.0000000000000000000, 0.5000000000000000000 ) ) ;
#45 = LOCAL_TIME ( 11, 14, 59.00000000000000000, #18 ) ;
#46 = AXIS2_PLACEMENT_3D ( 'NONE', #70, #168, #120 ) ;
#47 = CARTESIAN_POINT ( 'NONE',  ( 0.0000000000000000000, 0.0000000000000000000, 0.0000000000000000000 ) ) ;
#48 = ORIENTED_EDGE ( 'NONE', *, *, #16, .F. ) ;
#49 = CALENDAR_DATE ( 2017, 6, 9 ) ;
#50 = AXIS2_PLACEMENT_3D ( 'NONE', #133, #51, #163 ) ;
#51 = DIRECTION ( 'NONE',  ( -0.0000000000000000000, -0.0000000000000000000, -1.000000000000000000 ) ) ;
#52 = PERSON_AND_ORGANIZATION ( #149, #152 ) ;
#53 = CC_DESIGN_APPROVAL ( #20, ( #67 ) ) ;
#54 = CIRCLE ( 'NONE', #1, 12.50000000000000000 ) ;
#55 = CARTESIAN_POINT ( 'NONE',  ( -12.50000000000000000, 0.0000000000000000000, 0.5000000000000000000 ) ) ;
#56 = DIRECTION ( 'NONE',  ( 0.0000000000000000000, 0.0000000000000000000, 1.000000000000000000 ) ) ;
#57 = EDGE_LOOP ( 'NONE', ( #124, #26, #19, #48 ) ) ;
#58 = DIRECTION ( 'NONE',  ( 1.000000000000000000, 0.0000000000000000000, 0.0000000000000000000 ) ) ;
#59 = LOCAL_TIME ( 11, 14, 59.00000000000000000, #130 ) ;
#60 = APPROVAL_STATUS ( 'not_yet_approved' ) ;
#61 = ORIENTED_EDGE ( 'NONE', *, *, #94, .F. ) ;
#62 = AXIS2_PLACEMENT_3D ( 'NONE', #106, #99, #8 ) ;
#63 = PERSON_AND_ORGANIZATION ( #149, #152 ) ;
#64 = EDGE_CURVE ( 'NONE', #102, #156, #54, .T. ) ;
#65 = ORIENTED_EDGE ( 'NONE', *, *, #64, .T. ) ;
#66 = EDGE_CURVE ( 'NONE', #10, #35, #24, .T. ) ;
#67 = PRODUCT_DEFINITION_FORMATION_WITH_SPECIFIED_SOURCE ( 'ANY', '', #159, .NOT_KNOWN. ) ;
#68 = FACE_OUTER_BOUND ( 'NONE', #122, .T. ) ;
#69 = DIRECTION ( 'NONE',  ( 1.000000000000000000, 0.0000000000000000000, 0.0000000000000000000 ) ) ;
#70 = CARTESIAN_POINT ( 'NONE',  ( 0.0000000000000000000, 0.0000000000000000000, -0.5000000000000000000 ) ) ;
#71 = CIRCLE ( 'NONE', #115, 12.50000000000000000 ) ;
#72 = DIRECTION ( 'NONE',  ( 1.000000000000000000, 0.0000000000000000000, -0.0000000000000000000 ) ) ;
#73 = EDGE_CURVE ( 'NONE', #156, #102, #14, .T. ) ;
#74 = APPROVAL_STATUS ( 'not_yet_approved' ) ;
#75 = PERSON_AND_ORGANIZATION_ROLE ( 'classification_officer' ) ;
#76 = CC_DESIGN_APPROVAL ( #134, ( #148 ) ) ;
#77 = LOCAL_TIME ( 11, 14, 59.00000000000000000, #141 ) ;
#78 = CC_DESIGN_PERSON_AND_ORGANIZATION_ASSIGNMENT ( #153, #101, ( #67 ) ) ;
#79 = EDGE_CURVE ( 'NONE', #35, #10, #71, .T. ) ;
#80 = APPROVAL_PERSON_ORGANIZATION ( #63, #22, #126 ) ;
#81 = CARTESIAN_POINT ( 'NONE',  ( 12.50000000000000000, 1.530808498934191500E-015, -0.5000000000000000000 ) ) ;
#82 = DIRECTION ( 'NONE',  ( 0.0000000000000000000, 0.0000000000000000000, 1.000000000000000000 ) ) ;
#83 = CYLINDRICAL_SURFACE ( 'NONE', #129, 12.50000000000000000 ) ;
#84 = CARTESIAN_POINT ( 'NONE',  ( 0.0000000000000000000, 0.0000000000000000000, -0.5000000000000000000 ) ) ;
#85 = SECURITY_CLASSIFICATION ( '', '', #29 ) ;
#86 = PLANE ( 'NONE',  #62 ) ;
#87 = DATE_AND_TIME ( #43, #77 ) ;
#88 = MECHANICAL_CONTEXT ( 'NONE', #13, 'mechanical' ) ;
#89 = DESIGN_CONTEXT ( 'detailed design', #30, 'design' ) ;
#90 = ADVANCED_FACE ( 'NONE', ( #93 ), #83, .T. ) ;
#91 = APPROVAL_DATE_TIME ( #87, #134 ) ;
#92 = AXIS2_PLACEMENT_3D ( 'NONE', #47, #113, #58 ) ;
#93 = FACE_OUTER_BOUND ( 'NONE', #33, .T. ) ;
#94 = EDGE_CURVE ( 'NONE', #156, #35, #114, .T. ) ;
#95 = PRODUCT_DEFINITION_SHAPE ( 'NONE', 'NONE',  #148 ) ;
#96 = DATE_AND_TIME ( #49, #59 ) ;
#97 = DIRECTION ( 'NONE',  ( -0.0000000000000000000, -0.0000000000000000000, -1.000000000000000000 ) ) ;
#98 = CARTESIAN_POINT ( 'NONE',  ( 0.0000000000000000000, 0.0000000000000000000, 0.5000000000000000000 ) ) ;
#99 = DIRECTION ( 'NONE',  ( 0.0000000000000000000, 0.0000000000000000000, 1.000000000000000000 ) ) ;
#100 = DIRECTION ( 'NONE',  ( -0.0000000000000000000, -0.0000000000000000000, -1.000000000000000000 ) ) ;
#101 = PERSON_AND_ORGANIZATION_ROLE ( 'creator' ) ;
#102 = VERTEX_POINT ( 'NONE', #55 ) ;
#103 = PERSON_AND_ORGANIZATION_ROLE ( 'design_supplier' ) ;
#104 = VECTOR ( 'NONE', #97, 1000.000000000000000 ) ;
#105 =( GEOMETRIC_REPRESENTATION_CONTEXT ( 3 ) GLOBAL_UNCERTAINTY_ASSIGNED_CONTEXT ( ( #125 ) ) GLOBAL_UNIT_ASSIGNED_CONTEXT ( ( #155, #15, #40 ) ) REPRESENTATION_CONTEXT ( 'NONE', 'WORKASPACE' ) );
#106 = CARTESIAN_POINT ( 'NONE',  ( 0.0000000000000000000, 0.0000000000000000000, 0.5000000000000000000 ) ) ;
#107 = ORIENTED_EDGE ( 'NONE', *, *, #66, .F. ) ;
#108 = DIRECTION ( 'NONE',  ( 0.0000000000000000000, 0.0000000000000000000, 1.000000000000000000 ) ) ;
#109 = DIRECTION ( 'NONE',  ( -1.000000000000000000, 0.0000000000000000000, 0.0000000000000000000 ) ) ;
#110 = COORDINATED_UNIVERSAL_TIME_OFFSET ( 5, 0, .BEHIND. ) ;
#111 = DATE_TIME_ROLE ( 'classification_date' ) ;
#112 = CALENDAR_DATE ( 2017, 6, 9 ) ;
#113 = DIRECTION ( 'NONE',  ( 0.0000000000000000000, 0.0000000000000000000, 1.000000000000000000 ) ) ;
#114 = LINE ( 'NONE', #165, #104 ) ;
#115 = AXIS2_PLACEMENT_3D ( 'NONE', #34, #82, #69 ) ;
#116 = COORDINATED_UNIVERSAL_TIME_OFFSET ( 5, 0, .BEHIND. ) ;
#117 = APPROVAL_PERSON_ORGANIZATION ( #158, #20, #140 ) ;
#118 = DIRECTION ( 'NONE',  ( 0.0000000000000000000, 0.0000000000000000000, 1.000000000000000000 ) ) ;
#119 = CC_DESIGN_DATE_AND_TIME_ASSIGNMENT ( #6, #17, ( #148 ) ) ;
#120 = DIRECTION ( 'NONE',  ( 1.000000000000000000, 0.0000000000000000000, 0.0000000000000000000 ) ) ;
#121 = LOCAL_TIME ( 11, 14, 59.00000000000000000, #116 ) ;
#122 = EDGE_LOOP ( 'NONE', ( #65, #132 ) ) ;
#123 = APPROVAL_STATUS ( 'not_yet_approved' ) ;
#124 = ORIENTED_EDGE ( 'NONE', *, *, #73, .F. ) ;
#125 = UNCERTAINTY_MEASURE_WITH_UNIT (LENGTH_MEASURE( 1.000000000000000100E-005 ), #155, 'distance_accuracy_value', 'NONE');
#126 = APPROVAL_ROLE ( '' ) ;
#127 = ADVANCED_FACE ( 'NONE', ( #68 ), #86, .T. ) ;
#128 = LINE ( 'NONE', #44, #167 ) ;
#129 = AXIS2_PLACEMENT_3D ( 'NONE', #98, #100, #109 ) ;
#130 = COORDINATED_UNIVERSAL_TIME_OFFSET ( 5, 0, .BEHIND. ) ;
#131 = CLOSED_SHELL ( 'NONE', ( #42, #90, #127, #145 ) ) ;
#132 = ORIENTED_EDGE ( 'NONE', *, *, #73, .T. ) ;
#133 = CARTESIAN_POINT ( 'NONE',  ( 0.0000000000000000000, 0.0000000000000000000, 0.5000000000000000000 ) ) ;
#134 = APPROVAL ( #60, 'UNSPECIFIED' ) ;
#135 = CARTESIAN_POINT ( 'NONE',  ( 0.0000000000000000000, 0.0000000000000000000, 0.5000000000000000000 ) ) ;
#136 = FACE_OUTER_BOUND ( 'NONE', #57, .T. ) ;
#137 = ORIENTED_EDGE ( 'NONE', *, *, #79, .F. ) ;
#138 = CC_DESIGN_PERSON_AND_ORGANIZATION_ASSIGNMENT ( #52, #144, ( #159 ) ) ;
#139 = PLANE ( 'NONE',  #41 ) ;
#140 = APPROVAL_ROLE ( '' ) ;
#141 = COORDINATED_UNIVERSAL_TIME_OFFSET ( 5, 0, .BEHIND. ) ;
#142 = PERSON_AND_ORGANIZATION_ROLE ( 'creator' ) ;
#143 = CC_DESIGN_DATE_AND_TIME_ASSIGNMENT ( #96, #111, ( #85 ) ) ;
#144 = PERSON_AND_ORGANIZATION_ROLE ( 'design_owner' ) ;
#145 = ADVANCED_FACE ( 'NONE', ( #147 ), #139, .F. ) ;
#146 = CC_DESIGN_PERSON_AND_ORGANIZATION_ASSIGNMENT ( #173, #103, ( #67 ) ) ;
#147 = FACE_OUTER_BOUND ( 'NONE', #3, .T. ) ;
#148 = PRODUCT_DEFINITION ( 'UNKNOWN', '', #67, #89 ) ;
#149 = PERSON ( 'UNSPECIFIED', 'UNSPECIFIED', 'UNSPECIFIED', ('UNSPECIFIED'), ('UNSPECIFIED'), ('UNSPECIFIED') ) ;
#150 = APPROVAL_DATE_TIME ( #162, #20 ) ;
#151 = DIRECTION ( 'NONE',  ( 1.000000000000000000, 0.0000000000000000000, 0.0000000000000000000 ) ) ;
#152 = ORGANIZATION ( 'UNSPECIFIED', 'UNSPECIFIED', '' ) ;
#153 = PERSON_AND_ORGANIZATION ( #149, #152 ) ;
#154 = CC_DESIGN_APPROVAL ( #22, ( #85 ) ) ;
#155 =( LENGTH_UNIT ( ) NAMED_UNIT ( * ) SI_UNIT ( .MILLI., .METRE. ) );
#156 = VERTEX_POINT ( 'NONE', #169 ) ;
#157 = CC_DESIGN_PERSON_AND_ORGANIZATION_ASSIGNMENT ( #32, #142, ( #148 ) ) ;
#158 = PERSON_AND_ORGANIZATION ( #149, #152 ) ;
#159 = PRODUCT ( '36991_36997', '36991_36997', '', ( #88 ) ) ;
#160 = CALENDAR_DATE ( 2017, 6, 9 ) ;
#161 = ORIENTED_EDGE ( 'NONE', *, *, #16, .T. ) ;
#162 = DATE_AND_TIME ( #160, #23 ) ;
#163 = DIRECTION ( 'NONE',  ( -1.000000000000000000, 0.0000000000000000000, 0.0000000000000000000 ) ) ;
#164 = CC_DESIGN_SECURITY_CLASSIFICATION ( #85, ( #67 ) ) ;
#165 = CARTESIAN_POINT ( 'NONE',  ( 12.50000000000000000, 1.530808498934191500E-015, 0.5000000000000000000 ) ) ;
#166 = DATE_AND_TIME ( #112, #121 ) ;
#167 = VECTOR ( 'NONE', #4, 1000.000000000000000 ) ;
#168 = DIRECTION ( 'NONE',  ( 0.0000000000000000000, 0.0000000000000000000, 1.000000000000000000 ) ) ;
#169 = CARTESIAN_POINT ( 'NONE',  ( 12.50000000000000000, 1.530808498934191500E-015, 0.5000000000000000000 ) ) ;
#170 = DIRECTION ( 'NONE',  ( 1.000000000000000000, 0.0000000000000000000, 0.0000000000000000000 ) ) ;
#171 = CC_DESIGN_PERSON_AND_ORGANIZATION_ASSIGNMENT ( #12, #75, ( #85 ) ) ;
#172 = CYLINDRICAL_SURFACE ( 'NONE', #50, 12.50000000000000000 ) ;
#173 = PERSON_AND_ORGANIZATION ( #149, #152 ) ;
#174 = ORIENTED_EDGE ( 'NONE', *, *, #66, .T. ) ;
#175 = MANIFOLD_SOLID_BREP ( 'Boss-Extrude1', #131 ) ;
ENDSEC;
END-ISO-10303-21;
