ISO-10303-21;
HEADER;
FILE_DESCRIPTION (( 'STEP AP203' ),
    '1' );
FILE_NAME ('TTN162744-E0W.STEP',
    '2019-10-24T14:04:39',
    ( '' ),
    ( '' ),
    'SwSTEP 2.0',
    'SolidWorks 2018',
    '' );
FILE_SCHEMA (( 'CONFIG_CONTROL_DESIGN' ));
ENDSEC;

DATA;
#1 = VERTEX_POINT ( 'NONE', #245 ) ;
#2 = AXIS2_PLACEMENT_3D ( 'NONE', #175, #219, #24 ) ;
#3 = MANIFOLD_SOLID_BREP ( 'TTN162693-1-solid1', #105 ) ;
#4 =( NAMED_UNIT ( * ) SI_UNIT ( $, .STERADIAN. ) SOLID_ANGLE_UNIT ( ) );
#5 = ORIENTED_EDGE ( 'NONE', *, *, #235, .F. ) ;
#6 = LINE ( 'NONE', #215, #253 ) ;
#7 = ADVANCED_FACE ( 'NONE', ( #167 ), #243, .T. ) ;
#8 = COORDINATED_UNIVERSAL_TIME_OFFSET ( 5, 0, .BEHIND. ) ;
#9 = ORIENTED_EDGE ( 'NONE', *, *, #158, .F. ) ;
#10 = AXIS2_PLACEMENT_3D ( 'NONE', #180, #317, #270 ) ;
#11 = DATE_AND_TIME ( #84, #81 ) ;
#12 = CARTESIAN_POINT ( 'NONE',  ( 0.9406830715597573889, 1.602798749975423043, 3.121987907135257867 ) ) ;
#13 = DIRECTION ( 'NONE',  ( 0.7071067811865552333, 8.659560562355026535E-17, -0.7071067811865398012 ) ) ;
#14 = CARTESIAN_POINT ( 'NONE',  ( -0.5593169284402425001, 1.602798749975422821, 2.921524928666721532 ) ) ;
#15 = CARTESIAN_POINT ( 'NONE',  ( 0.9406830715597573889, 1.602798749975422599, 1.671987907135259244 ) ) ;
#16 = ORIENTED_EDGE ( 'NONE', *, *, #227, .F. ) ;
#17 = DIRECTION ( 'NONE',  ( -0.0000000000000000000, -0.0000000000000000000, 1.000000000000000000 ) ) ;
#18 = CC_DESIGN_PERSON_AND_ORGANIZATION_ASSIGNMENT ( #91, #155, ( #204 ) ) ;
#19 = APPLICATION_PROTOCOL_DEFINITION ( 'international standard', 'config_control_design', 1994, #70 ) ;
#20 = CARTESIAN_POINT ( 'NONE',  ( 0.9406830715597573889, 1.602798749975422599, 1.621987907135258533 ) ) ;
#21 = DATE_TIME_ROLE ( 'classification_date' ) ;
#22 = PERSON ( 'UNSPECIFIED', 'UNSPECIFIED', 'UNSPECIFIED', ('UNSPECIFIED'), ('UNSPECIFIED'), ('UNSPECIFIED') ) ;
#23 = VECTOR ( 'NONE', #13, 1000.000000000000114 ) ;
#24 = DIRECTION ( 'NONE',  ( 1.000000000000000000, 0.0000000000000000000, 0.0000000000000000000 ) ) ;
#25 = PLANE ( 'NONE',  #241 ) ;
#26 = ORGANIZATION ( 'UNSPECIFIED', 'UNSPECIFIED', '' ) ;
#27 = CALENDAR_DATE ( 2019, 24, 10 ) ;
#28 = ORIENTED_EDGE ( 'NONE', *, *, #178, .F. ) ;
#29 = CIRCLE ( 'NONE', #2, 1.450000000000000178 ) ;
#30 = AXIS2_PLACEMENT_3D ( 'NONE', #128, #206, #104 ) ;
#31 = COORDINATED_UNIVERSAL_TIME_OFFSET ( 5, 0, .BEHIND. ) ;
#32 = CC_DESIGN_PERSON_AND_ORGANIZATION_ASSIGNMENT ( #202, #266, ( #146 ) ) ;
#33 = EDGE_CURVE ( 'NONE', #1, #161, #129, .T. ) ;
#34 = ADVANCED_FACE ( 'NONE', ( #193 ), #228, .T. ) ;
#35 = ORIENTED_EDGE ( 'NONE', *, *, #232, .F. ) ;
#36 = AXIS2_PLACEMENT_3D ( 'NONE', #310, #240, #306 ) ;
#37 = CIRCLE ( 'NONE', #166, 1.449999999999998845 ) ;
#38 = EDGE_CURVE ( 'NONE', #127, #224, #182, .T. ) ;
#39 = LINE ( 'NONE', #271, #259 ) ;
#40 = SHAPE_DEFINITION_REPRESENTATION ( #108, #124 ) ;
#41 = DIRECTION ( 'NONE',  ( -0.0000000000000000000, -0.0000000000000000000, 1.000000000000000000 ) ) ;
#42 = AXIS2_PLACEMENT_3D ( 'NONE', #203, #123, #218 ) ;
#43 = DIRECTION ( 'NONE',  ( -1.228209767754748564E-16, -1.000000000000000000, 0.0000000000000000000 ) ) ;
#44 = APPROVAL_ROLE ( '' ) ;
#45 = DIRECTION ( 'NONE',  ( 1.000000000000000000, 0.0000000000000000000, 0.0000000000000000000 ) ) ;
#46 = ORIENTED_EDGE ( 'NONE', *, *, #59, .T. ) ;
#47 = DIRECTION ( 'NONE',  ( 0.0000000000000000000, 0.0000000000000000000, -1.000000000000000000 ) ) ;
#48 = DIRECTION ( 'NONE',  ( 0.0000000000000000000, -0.0000000000000000000, 1.000000000000000000 ) ) ;
#49 = ORIENTED_EDGE ( 'NONE', *, *, #83, .F. ) ;
#50 = ORIENTED_EDGE ( 'NONE', *, *, #305, .F. ) ;
#51 = APPROVAL ( #264, 'UNSPECIFIED' ) ;
#52 = ORIENTED_EDGE ( 'NONE', *, *, #305, .T. ) ;
#53 = DATE_AND_TIME ( #111, #61 ) ;
#54 = DIRECTION ( 'NONE',  ( 0.0000000000000000000, 0.0000000000000000000, 1.000000000000000000 ) ) ;
#55 = AXIS2_PLACEMENT_3D ( 'NONE', #102, #172, #125 ) ;
#56 = FACE_OUTER_BOUND ( 'NONE', #236, .T. ) ;
#57 = ADVANCED_FACE ( 'NONE', ( #114 ), #25, .F. ) ;
#58 = ORIENTED_EDGE ( 'NONE', *, *, #277, .F. ) ;
#59 = EDGE_CURVE ( 'NONE', #127, #176, #39, .T. ) ;
#60 = CIRCLE ( 'NONE', #131, 1.499999999999999778 ) ;
#61 = LOCAL_TIME ( 10, 4, 39.00000000000000000, #8 ) ;
#62 = CC_DESIGN_APPROVAL ( #99, ( #311 ) ) ;
#63 = ADVANCED_FACE ( 'NONE', ( #66 ), #230, .T. ) ;
#64 = ORIENTED_EDGE ( 'NONE', *, *, #38, .F. ) ;
#65 = APPROVAL_DATE_TIME ( #181, #51 ) ;
#66 = FACE_OUTER_BOUND ( 'NONE', #188, .T. ) ;
#67 = AXIS2_PLACEMENT_3D ( 'NONE', #69, #117, #281 ) ;
#68 = DIRECTION ( 'NONE',  ( 0.7071067811865398012, 0.0000000000000000000, 0.7071067811865552333 ) ) ;
#69 = CARTESIAN_POINT ( 'NONE',  ( 0.9406830715597573889, 1.602798749975422599, 2.921524928666721532 ) ) ;
#70 = APPLICATION_CONTEXT ( 'configuration controlled 3d designs of mechanical parts and assemblies' ) ;
#71 = FACE_OUTER_BOUND ( 'NONE', #287, .T. ) ;
#72 = PERSON_AND_ORGANIZATION_ROLE ( 'creator' ) ;
#73 = CARTESIAN_POINT ( 'NONE',  ( 0.9406830715597573889, 1.602798749975422599, -3.940012092864742410 ) ) ;
#74 = PERSON_AND_ORGANIZATION ( #22, #26 ) ;
#75 = DIRECTION ( 'NONE',  ( -0.0000000000000000000, -0.0000000000000000000, 1.000000000000000000 ) ) ;
#76 = CC_DESIGN_DATE_AND_TIME_ASSIGNMENT ( #194, #198, ( #311 ) ) ;
#77 = DIRECTION ( 'NONE',  ( 1.000000000000000000, 0.0000000000000000000, 0.0000000000000000000 ) ) ;
#78 = CALENDAR_DATE ( 2019, 24, 10 ) ;
#79 = DIRECTION ( 'NONE',  ( 1.000000000000000000, 0.0000000000000000000, 0.0000000000000000000 ) ) ;
#80 = AXIS2_PLACEMENT_3D ( 'NONE', #96, #191, #88 ) ;
#81 = LOCAL_TIME ( 10, 4, 39.00000000000000000, #238 ) ;
#82 = AXIS2_PLACEMENT_3D ( 'NONE', #20, #47, #45 ) ;
#83 = EDGE_CURVE ( 'NONE', #176, #120, #60, .T. ) ;
#84 = CALENDAR_DATE ( 2019, 24, 10 ) ;
#85 = ADVANCED_FACE ( 'NONE', ( #308 ), #185, .T. ) ;
#86 = AXIS2_PLACEMENT_3D ( 'NONE', #73, #147, #267 ) ;
#87 = ORIENTED_EDGE ( 'NONE', *, *, #258, .F. ) ;
#88 = DIRECTION ( 'NONE',  ( 1.000000000000000000, 0.0000000000000000000, 0.0000000000000000000 ) ) ;
#89 = DIRECTION ( 'NONE',  ( 1.000000000000000000, 0.0000000000000000000, 0.0000000000000000000 ) ) ;
#90 = CARTESIAN_POINT ( 'NONE',  ( 0.9406830715597573889, 1.602798749975422599, -3.940012092864742410 ) ) ;
#91 = PERSON_AND_ORGANIZATION ( #22, #26 ) ;
#92 = DIRECTION ( 'NONE',  ( 1.000000000000000000, 0.0000000000000000000, 0.0000000000000000000 ) ) ;
#93 = AXIS2_PLACEMENT_3D ( 'NONE', #165, #169, #142 ) ;
#94 = APPROVAL_DATE_TIME ( #11, #174 ) ;
#95 = VERTEX_POINT ( 'NONE', #261 ) ;
#96 = CARTESIAN_POINT ( 'NONE',  ( 0.9406830715597573889, 1.602798749975422599, 2.971524928666721355 ) ) ;
#97 = APPROVAL_ROLE ( '' ) ;
#98 = CONICAL_SURFACE ( 'NONE', #10, 1.499999999999999778, 0.7853981633974591592 ) ;
#99 = APPROVAL ( #284, 'UNSPECIFIED' ) ;
#100 = ADVANCED_FACE ( 'NONE', ( #71 ), #251, .T. ) ;
#101 = DIRECTION ( 'NONE',  ( 1.000000000000000000, 0.0000000000000000000, 0.0000000000000000000 ) ) ;
#102 = CARTESIAN_POINT ( 'NONE',  ( 0.9406830715597573889, 1.602798749975422599, -3.940012092864742410 ) ) ;
#103 = AXIS2_PLACEMENT_3D ( 'NONE', #153, #54, #208 ) ;
#104 = DIRECTION ( 'NONE',  ( -1.000000000000000000, 0.0000000000000000000, 0.0000000000000000000 ) ) ;
#105 = CLOSED_SHELL ( 'NONE', ( #229, #34, #63, #106, #57, #7, #301, #100, #85 ) ) ;
#106 = ADVANCED_FACE ( 'NONE', ( #318 ), #122, .T. ) ;
#107 = FACE_OUTER_BOUND ( 'NONE', #183, .T. ) ;
#108 = PRODUCT_DEFINITION_SHAPE ( 'NONE', 'NONE',  #311 ) ;
#109 = VECTOR ( 'NONE', #239, 1000.000000000000000 ) ;
#110 = EDGE_LOOP ( 'NONE', ( #295, #216, #304, #58 ) ) ;
#111 = CALENDAR_DATE ( 2019, 24, 10 ) ;
#112 = PRODUCT_RELATED_PRODUCT_CATEGORY ( 'detail', '', ( #204 ) ) ;
#113 = ORIENTED_EDGE ( 'NONE', *, *, #33, .T. ) ;
#114 = FACE_OUTER_BOUND ( 'NONE', #234, .T. ) ;
#115 = CARTESIAN_POINT ( 'NONE',  ( 0.9406830715597571668, 0.1527987499754250855, 2.971524928666721355 ) ) ;
#116 = ORIENTED_EDGE ( 'NONE', *, *, #273, .F. ) ;
#117 = DIRECTION ( 'NONE',  ( -0.0000000000000000000, -0.0000000000000000000, 1.000000000000000000 ) ) ;
#118 = DIRECTION ( 'NONE',  ( -1.000000000000000000, 1.224646799147353207E-16, 0.0000000000000000000 ) ) ;
#119 = CARTESIAN_POINT ( 'NONE',  ( 2.440683071559757167, 1.602798749975422821, 2.921524928666721532 ) ) ;
#120 = VERTEX_POINT ( 'NONE', #237 ) ;
#121 = PERSON_AND_ORGANIZATION_ROLE ( 'design_supplier' ) ;
#122 = CYLINDRICAL_SURFACE ( 'NONE', #36, 1.499999999999999778 ) ;
#123 = DIRECTION ( 'NONE',  ( -0.0000000000000000000, -0.0000000000000000000, 1.000000000000000000 ) ) ;
#124 = ADVANCED_BREP_SHAPE_REPRESENTATION ( 'TTN162744-E0W', ( #3, #103 ), #263 ) ;
#125 = DIRECTION ( 'NONE',  ( 0.0000000000000000000, 1.000000000000000000, 0.0000000000000000000 ) ) ;
#126 = EDGE_CURVE ( 'NONE', #260, #95, #6, .T. ) ;
#127 = VERTEX_POINT ( 'NONE', #262 ) ;
#128 = CARTESIAN_POINT ( 'NONE',  ( 0.9406830715597573889, 1.602798749975422599, 2.921524928666721532 ) ) ;
#129 = LINE ( 'NONE', #177, #278 ) ;
#130 = CARTESIAN_POINT ( 'NONE',  ( 0.9406830715597573889, 1.602798749975422599, 2.971524928666721355 ) ) ;
#131 = AXIS2_PLACEMENT_3D ( 'NONE', #214, #285, #307 ) ;
#132 = ORIENTED_EDGE ( 'NONE', *, *, #38, .T. ) ;
#133 = APPLICATION_CONTEXT ( 'configuration controlled 3d designs of mechanical parts and assemblies' ) ;
#134 = APPLICATION_PROTOCOL_DEFINITION ( 'international standard', 'config_control_design', 1994, #133 ) ;
#135 = ORIENTED_EDGE ( 'NONE', *, *, #221, .T. ) ;
#136 = CIRCLE ( 'NONE', #42, 1.449999999999998845 ) ;
#137 = UNCERTAINTY_MEASURE_WITH_UNIT (LENGTH_MEASURE( 1.000000000000000082E-05 ), #293, 'distance_accuracy_value', 'NONE');
#138 = ORIENTED_EDGE ( 'NONE', *, *, #192, .T. ) ;
#139 = CC_DESIGN_PERSON_AND_ORGANIZATION_ASSIGNMENT ( #309, #72, ( #311 ) ) ;
#140 = CONICAL_SURFACE ( 'NONE', #292, 1.499999999999999778, 0.7853981633974375098 ) ;
#141 = PERSON_AND_ORGANIZATION ( #22, #26 ) ;
#142 = DIRECTION ( 'NONE',  ( 0.0000000000000000000, 1.000000000000000000, 0.0000000000000000000 ) ) ;
#143 = CARTESIAN_POINT ( 'NONE',  ( 0.9406830715597573889, 1.602798749975422599, 1.671987907135259244 ) ) ;
#144 = ORIENTED_EDGE ( 'NONE', *, *, #288, .T. ) ;
#145 = VERTEX_POINT ( 'NONE', #12 ) ;
#146 = PRODUCT_DEFINITION_FORMATION_WITH_SPECIFIED_SOURCE ( 'ANY', '', #204, .NOT_KNOWN. ) ;
#147 = DIRECTION ( 'NONE',  ( 1.000000000000000000, 0.0000000000000000000, 0.0000000000000000000 ) ) ;
#148 = DIRECTION ( 'NONE',  ( -0.7071067811865398012, 8.659560562354839181E-17, 0.7071067811865552333 ) ) ;
#149 = ORIENTED_EDGE ( 'NONE', *, *, #288, .F. ) ;
#150 = ORIENTED_EDGE ( 'NONE', *, *, #258, .T. ) ;
#151 = CARTESIAN_POINT ( 'NONE',  ( 0.9406830715597573889, 1.602798749975422599, 1.671987907135259244 ) ) ;
#152 = DIRECTION ( 'NONE',  ( 1.000000000000000000, 0.0000000000000000000, 0.0000000000000000000 ) ) ;
#153 = CARTESIAN_POINT ( 'NONE',  ( 0.0000000000000000000, 0.0000000000000000000, 0.0000000000000000000 ) ) ;
#154 = DATE_AND_TIME ( #225, #320 ) ;
#155 = PERSON_AND_ORGANIZATION_ROLE ( 'design_owner' ) ;
#156 =( NAMED_UNIT ( * ) PLANE_ANGLE_UNIT ( ) SI_UNIT ( $, .RADIAN. ) );
#157 = ORIENTED_EDGE ( 'NONE', *, *, #158, .T. ) ;
#158 = EDGE_CURVE ( 'NONE', #283, #291, #210, .T. ) ;
#159 = LOCAL_TIME ( 10, 4, 39.00000000000000000, #279 ) ;
#160 = ORIENTED_EDGE ( 'NONE', *, *, #59, .F. ) ;
#161 = VERTEX_POINT ( 'NONE', #265 ) ;
#162 = CIRCLE ( 'NONE', #86, 7.061999999999999389 ) ;
#163 = CARTESIAN_POINT ( 'NONE',  ( 0.9406830715597573889, 1.602798749975422599, 1.671987907135259244 ) ) ;
#164 = DIRECTION ( 'NONE',  ( -0.0000000000000000000, -0.0000000000000000000, 1.000000000000000000 ) ) ;
#165 = CARTESIAN_POINT ( 'NONE',  ( 0.9406830715597573889, 1.602798749975422599, -3.940012092864742410 ) ) ;
#166 = AXIS2_PLACEMENT_3D ( 'NONE', #226, #296, #79 ) ;
#167 = FACE_OUTER_BOUND ( 'NONE', #298, .T. ) ;
#168 = ORIENTED_EDGE ( 'NONE', *, *, #33, .F. ) ;
#169 = DIRECTION ( 'NONE',  ( -1.000000000000000000, 0.0000000000000000000, 0.0000000000000000000 ) ) ;
#170 = CARTESIAN_POINT ( 'NONE',  ( 2.440683071559757167, 1.602798749975422599, 3.121987907135258311 ) ) ;
#171 = ORIENTED_EDGE ( 'NONE', *, *, #232, .T. ) ;
#172 = DIRECTION ( 'NONE',  ( -1.000000000000000000, 0.0000000000000000000, 0.0000000000000000000 ) ) ;
#173 = VECTOR ( 'NONE', #17, 1000.000000000000000 ) ;
#174 = APPROVAL ( #242, 'UNSPECIFIED' ) ;
#175 = CARTESIAN_POINT ( 'NONE',  ( 0.9406830715597573889, 1.602798749975422599, 1.621987907135258533 ) ) ;
#176 = VERTEX_POINT ( 'NONE', #14 ) ;
#177 = CARTESIAN_POINT ( 'NONE',  ( -0.5593169284402427222, 1.602798749975422821, 1.671987907135259244 ) ) ;
#178 = EDGE_CURVE ( 'NONE', #161, #176, #205, .T. ) ;
#179 = ORIENTED_EDGE ( 'NONE', *, *, #192, .F. ) ;
#180 = CARTESIAN_POINT ( 'NONE',  ( 0.9406830715597573889, 1.602798749975422599, 2.921524928666721532 ) ) ;
#181 = DATE_AND_TIME ( #27, #254 ) ;
#182 = CIRCLE ( 'NONE', #255, 1.449999999999998845 ) ;
#183 = EDGE_LOOP ( 'NONE', ( #5, #87, #64, #46, #312 ) ) ;
#184 = ORIENTED_EDGE ( 'NONE', *, *, #319, .T. ) ;
#185 = CONICAL_SURFACE ( 'NONE', #276, 1.499999999999999778, 0.7853981633974375098 ) ;
#186 = CC_DESIGN_DATE_AND_TIME_ASSIGNMENT ( #53, #21, ( #197 ) ) ;
#187 = APPROVAL_PERSON_ORGANIZATION ( #248, #51, #44 ) ;
#188 = EDGE_LOOP ( 'NONE', ( #9, #222, #135, #160, #244 ) ) ;
#189 = EDGE_LOOP ( 'NONE', ( #168, #116, #199, #149 ) ) ;
#190 = CC_DESIGN_APPROVAL ( #174, ( #146 ) ) ;
#191 = DIRECTION ( 'NONE',  ( -0.0000000000000000000, -0.0000000000000000000, 1.000000000000000000 ) ) ;
#192 = EDGE_CURVE ( 'NONE', #224, #145, #269, .T. ) ;
#193 = FACE_OUTER_BOUND ( 'NONE', #297, .T. ) ;
#194 = DATE_AND_TIME ( #78, #159 ) ;
#195 = DIRECTION ( 'NONE',  ( 1.000000000000000000, 0.0000000000000000000, 0.0000000000000000000 ) ) ;
#196 = DESIGN_CONTEXT ( 'detailed design', #70, 'design' ) ;
#197 = SECURITY_CLASSIFICATION ( '', '', #286 ) ;
#198 = DATE_TIME_ROLE ( 'creation_date' ) ;
#199 = ORIENTED_EDGE ( 'NONE', *, *, #126, .T. ) ;
#200 = CIRCLE ( 'NONE', #82, 1.450000000000000178 ) ;
#201 = PERSON_AND_ORGANIZATION_ROLE ( 'classification_officer' ) ;
#202 = PERSON_AND_ORGANIZATION ( #22, #26 ) ;
#203 = CARTESIAN_POINT ( 'NONE',  ( 0.9406830715597573889, 1.602798749975422599, 2.971524928666721355 ) ) ;
#204 = PRODUCT ( 'TTN162744-E0W', 'TTN162744-E0W', '', ( #294 ) ) ;
#205 = LINE ( 'NONE', #313, #109 ) ;
#206 = DIRECTION ( 'NONE',  ( 0.0000000000000000000, 0.0000000000000000000, -1.000000000000000000 ) ) ;
#207 = ORIENTED_EDGE ( 'NONE', *, *, #277, .T. ) ;
#208 = DIRECTION ( 'NONE',  ( 1.000000000000000000, 0.0000000000000000000, 0.0000000000000000000 ) ) ;
#209 = CC_DESIGN_PERSON_AND_ORGANIZATION_ASSIGNMENT ( #141, #121, ( #146 ) ) ;
#210 = CIRCLE ( 'NONE', #80, 1.449999999999998845 ) ;
#211 = APPROVAL_PERSON_ORGANIZATION ( #74, #174, #97 ) ;
#212 = CIRCLE ( 'NONE', #250, 1.499999999999999778 ) ;
#213 = APPROVAL_DATE_TIME ( #154, #99 ) ;
#214 = CARTESIAN_POINT ( 'NONE',  ( 0.9406830715597573889, 1.602798749975422599, 2.921524928666721532 ) ) ;
#215 = CARTESIAN_POINT ( 'NONE',  ( 2.440683071559757167, 1.602798749975422599, 1.671987907135259244 ) ) ;
#216 = ORIENTED_EDGE ( 'NONE', *, *, #178, .T. ) ;
#217 = COORDINATED_UNIVERSAL_TIME_OFFSET ( 5, 0, .BEHIND. ) ;
#218 = DIRECTION ( 'NONE',  ( 1.000000000000000000, 0.0000000000000000000, 0.0000000000000000000 ) ) ;
#219 = DIRECTION ( 'NONE',  ( 0.0000000000000000000, 0.0000000000000000000, -1.000000000000000000 ) ) ;
#220 = CARTESIAN_POINT ( 'NONE',  ( 0.9406830715597573889, 1.602798749975422599, 3.121987907135258311 ) ) ;
#221 = EDGE_CURVE ( 'NONE', #120, #176, #256, .T. ) ;
#222 = ORIENTED_EDGE ( 'NONE', *, *, #235, .T. ) ;
#223 = PERSON_AND_ORGANIZATION ( #22, #26 ) ;
#224 = VERTEX_POINT ( 'NONE', #115 ) ;
#225 = CALENDAR_DATE ( 2019, 24, 10 ) ;
#226 = CARTESIAN_POINT ( 'NONE',  ( 0.9406830715597573889, 1.602798749975422599, 2.971524928666721355 ) ) ;
#227 = EDGE_CURVE ( 'NONE', #95, #161, #212, .T. ) ;
#228 = SPHERICAL_SURFACE ( 'NONE', #55, 7.062000000000000277 ) ;
#229 = ADVANCED_FACE ( 'NONE', ( #56 ), #140, .T. ) ;
#230 = CONICAL_SURFACE ( 'NONE', #30, 1.499999999999999778, 0.7853981633974591592 ) ;
#231 = ORIENTED_EDGE ( 'NONE', *, *, #273, .T. ) ;
#232 = EDGE_CURVE ( 'NONE', #291, #145, #162, .T. ) ;
#233 = CC_DESIGN_PERSON_AND_ORGANIZATION_ASSIGNMENT ( #299, #201, ( #197 ) ) ;
#234 = EDGE_LOOP ( 'NONE', ( #231, #52 ) ) ;
#235 = EDGE_CURVE ( 'NONE', #283, #120, #290, .T. ) ;
#236 = EDGE_LOOP ( 'NONE', ( #50, #113, #16, #280 ) ) ;
#237 = CARTESIAN_POINT ( 'NONE',  ( 2.440683071559757167, 1.602798749975422599, 2.921524928666721532 ) ) ;
#238 = COORDINATED_UNIVERSAL_TIME_OFFSET ( 5, 0, .BEHIND. ) ;
#239 = DIRECTION ( 'NONE',  ( -0.0000000000000000000, -0.0000000000000000000, 1.000000000000000000 ) ) ;
#240 = DIRECTION ( 'NONE',  ( -0.0000000000000000000, -0.0000000000000000000, 1.000000000000000000 ) ) ;
#241 = AXIS2_PLACEMENT_3D ( 'NONE', #249, #48, #247 ) ;
#242 = APPROVAL_STATUS ( 'not_yet_approved' ) ;
#243 = CYLINDRICAL_SURFACE ( 'NONE', #300, 1.499999999999999778 ) ;
#244 = ORIENTED_EDGE ( 'NONE', *, *, #319, .F. ) ;
#245 = CARTESIAN_POINT ( 'NONE',  ( -0.5093169284402430108, 1.602798749975422821, 1.621987907135258533 ) ) ;
#246 = CIRCLE ( 'NONE', #303, 1.499999999999999778 ) ;
#247 = DIRECTION ( 'NONE',  ( 1.000000000000000000, 0.0000000000000000000, 0.0000000000000000000 ) ) ;
#248 = PERSON_AND_ORGANIZATION ( #22, #26 ) ;
#249 = CARTESIAN_POINT ( 'NONE',  ( 0.9406830715597573889, 1.602798749975422599, 1.621987907135258533 ) ) ;
#250 = AXIS2_PLACEMENT_3D ( 'NONE', #143, #164, #89 ) ;
#251 = SPHERICAL_SURFACE ( 'NONE', #93, 7.062000000000000277 ) ;
#252 = CC_DESIGN_APPROVAL ( #51, ( #197 ) ) ;
#253 = VECTOR ( 'NONE', #68, 1000.000000000000114 ) ;
#254 = LOCAL_TIME ( 10, 4, 39.00000000000000000, #31 ) ;
#255 = AXIS2_PLACEMENT_3D ( 'NONE', #130, #289, #152 ) ;
#256 = CIRCLE ( 'NONE', #67, 1.499999999999999778 ) ;
#257 = AXIS2_PLACEMENT_3D ( 'NONE', #90, #118, #43 ) ;
#258 = EDGE_CURVE ( 'NONE', #224, #283, #136, .T. ) ;
#259 = VECTOR ( 'NONE', #274, 1000.000000000000114 ) ;
#260 = VERTEX_POINT ( 'NONE', #315 ) ;
#261 = CARTESIAN_POINT ( 'NONE',  ( 2.440683071559757167, 1.602798749975422599, 1.671987907135259244 ) ) ;
#262 = CARTESIAN_POINT ( 'NONE',  ( -0.5093169284402414565, 1.602798749975422599, 2.971524928666721355 ) ) ;
#263 =( GEOMETRIC_REPRESENTATION_CONTEXT ( 3 ) GLOBAL_UNCERTAINTY_ASSIGNED_CONTEXT ( ( #137 ) ) GLOBAL_UNIT_ASSIGNED_CONTEXT ( ( #293, #156, #4 ) ) REPRESENTATION_CONTEXT ( 'NONE', 'WORKASPACE' ) );
#264 = APPROVAL_STATUS ( 'not_yet_approved' ) ;
#265 = CARTESIAN_POINT ( 'NONE',  ( -0.5593169284402427222, 1.602798749975422821, 1.671987907135259244 ) ) ;
#266 = PERSON_AND_ORGANIZATION_ROLE ( 'creator' ) ;
#267 = DIRECTION ( 'NONE',  ( 0.0000000000000000000, 0.0000000000000000000, -1.000000000000000000 ) ) ;
#268 = CC_DESIGN_SECURITY_CLASSIFICATION ( #197, ( #146 ) ) ;
#269 = CIRCLE ( 'NONE', #257, 7.062000000000000277 ) ;
#270 = DIRECTION ( 'NONE',  ( -1.000000000000000000, 0.0000000000000000000, 0.0000000000000000000 ) ) ;
#271 = CARTESIAN_POINT ( 'NONE',  ( -0.5593169284402425001, 1.602798749975422599, 2.921524928666721532 ) ) ;
#272 = CARTESIAN_POINT ( 'NONE',  ( 0.9406830715597573889, 3.052798749975420112, 2.971524928666721355 ) ) ;
#273 = EDGE_CURVE ( 'NONE', #260, #1, #200, .T. ) ;
#274 = DIRECTION ( 'NONE',  ( -0.7071067811865552333, 0.0000000000000000000, -0.7071067811865398012 ) ) ;
#275 = CARTESIAN_POINT ( 'NONE',  ( 2.390683071559756012, 1.602798749975422821, 2.971524928666721355 ) ) ;
#276 = AXIS2_PLACEMENT_3D ( 'NONE', #163, #282, #195 ) ;
#277 = EDGE_CURVE ( 'NONE', #95, #120, #316, .T. ) ;
#278 = VECTOR ( 'NONE', #148, 1000.000000000000114 ) ;
#279 = COORDINATED_UNIVERSAL_TIME_OFFSET ( 5, 0, .BEHIND. ) ;
#280 = ORIENTED_EDGE ( 'NONE', *, *, #126, .F. ) ;
#281 = DIRECTION ( 'NONE',  ( 1.000000000000000000, 0.0000000000000000000, 0.0000000000000000000 ) ) ;
#282 = DIRECTION ( 'NONE',  ( -0.0000000000000000000, -0.0000000000000000000, 1.000000000000000000 ) ) ;
#283 = VERTEX_POINT ( 'NONE', #275 ) ;
#284 = APPROVAL_STATUS ( 'not_yet_approved' ) ;
#285 = DIRECTION ( 'NONE',  ( -0.0000000000000000000, -0.0000000000000000000, 1.000000000000000000 ) ) ;
#286 = SECURITY_CLASSIFICATION_LEVEL ( 'unclassified' ) ;
#287 = EDGE_LOOP ( 'NONE', ( #179, #150, #157, #171 ) ) ;
#288 = EDGE_CURVE ( 'NONE', #161, #95, #246, .T. ) ;
#289 = DIRECTION ( 'NONE',  ( -0.0000000000000000000, -0.0000000000000000000, 1.000000000000000000 ) ) ;
#290 = LINE ( 'NONE', #119, #23 ) ;
#291 = VERTEX_POINT ( 'NONE', #272 ) ;
#292 = AXIS2_PLACEMENT_3D ( 'NONE', #15, #41, #92 ) ;
#293 =( LENGTH_UNIT ( ) NAMED_UNIT ( * ) SI_UNIT ( .MILLI., .METRE. ) );
#294 = MECHANICAL_CONTEXT ( 'NONE', #133, 'mechanical' ) ;
#295 = ORIENTED_EDGE ( 'NONE', *, *, #227, .T. ) ;
#296 = DIRECTION ( 'NONE',  ( -0.0000000000000000000, -0.0000000000000000000, 1.000000000000000000 ) ) ;
#297 = EDGE_LOOP ( 'NONE', ( #132, #138, #35, #184 ) ) ;
#298 = EDGE_LOOP ( 'NONE', ( #28, #144, #207, #49 ) ) ;
#299 = PERSON_AND_ORGANIZATION ( #22, #26 ) ;
#300 = AXIS2_PLACEMENT_3D ( 'NONE', #220, #75, #101 ) ;
#301 = ADVANCED_FACE ( 'NONE', ( #107 ), #98, .T. ) ;
#302 = APPROVAL_PERSON_ORGANIZATION ( #223, #99, #314 ) ;
#303 = AXIS2_PLACEMENT_3D ( 'NONE', #151, #321, #77 ) ;
#304 = ORIENTED_EDGE ( 'NONE', *, *, #221, .F. ) ;
#305 = EDGE_CURVE ( 'NONE', #1, #260, #29, .T. ) ;
#306 = DIRECTION ( 'NONE',  ( 1.000000000000000000, 0.0000000000000000000, 0.0000000000000000000 ) ) ;
#307 = DIRECTION ( 'NONE',  ( 1.000000000000000000, 0.0000000000000000000, 0.0000000000000000000 ) ) ;
#308 = FACE_OUTER_BOUND ( 'NONE', #189, .T. ) ;
#309 = PERSON_AND_ORGANIZATION ( #22, #26 ) ;
#310 = CARTESIAN_POINT ( 'NONE',  ( 0.9406830715597573889, 1.602798749975422599, 3.121987907135258311 ) ) ;
#311 = PRODUCT_DEFINITION ( 'UNKNOWN', '', #146, #196 ) ;
#312 = ORIENTED_EDGE ( 'NONE', *, *, #83, .T. ) ;
#313 = CARTESIAN_POINT ( 'NONE',  ( -0.5593169284402427222, 1.602798749975422821, 3.121987907135258311 ) ) ;
#314 = APPROVAL_ROLE ( '' ) ;
#315 = CARTESIAN_POINT ( 'NONE',  ( 2.390683071559757344, 1.602798749975422599, 1.621987907135258533 ) ) ;
#316 = LINE ( 'NONE', #170, #173 ) ;
#317 = DIRECTION ( 'NONE',  ( 0.0000000000000000000, 0.0000000000000000000, -1.000000000000000000 ) ) ;
#318 = FACE_OUTER_BOUND ( 'NONE', #110, .T. ) ;
#319 = EDGE_CURVE ( 'NONE', #291, #127, #37, .T. ) ;
#320 = LOCAL_TIME ( 10, 4, 39.00000000000000000, #217 ) ;
#321 = DIRECTION ( 'NONE',  ( -0.0000000000000000000, -0.0000000000000000000, 1.000000000000000000 ) ) ;
ENDSEC;
END-ISO-10303-21;
