ISO-10303-21;
HEADER;
FILE_DESCRIPTION (( 'STEP AP203' ),
    '1' );
FILE_NAME ('Web Model 48414_48414.step',
    '2017-04-10T16:49:37',
    ( '' ),
    ( '' ),
    'SwSTEP 2.0',
    'SolidWorks 2016',
    '' );
FILE_SCHEMA (( 'CONFIG_CONTROL_DESIGN' ));
ENDSEC;

DATA;
#1 = DATE_AND_TIME ( #2, #3 ) ;
#2 = CALENDAR_DATE ( 2017, 10, 4 ) ;
#3 = LOCAL_TIME ( 12, 49, 37.00000000000000000, #5 ) ;
#4 = APPROVAL_DATE_TIME ( #123, #9 ) ;
#5 = COORDINATED_UNIVERSAL_TIME_OFFSET ( 5, 0, .BEHIND. ) ;
#6 = DATE_AND_TIME ( #125, #56 ) ;
#7 = PRODUCT_DEFINITION_FORMATION_WITH_SPECIFIED_SOURCE ( 'ANY', '', #79, .NOT_KNOWN. ) ;
#8 = PERSON_AND_ORGANIZATION ( #173, #73 ) ;
#9 = APPROVAL ( #27, 'UNSPECIFIED' ) ;
#10 = CARTESIAN_POINT ( 'NONE',  ( 0.0000000000000000000, 0.0000000000000000000, 3.000000000000000000 ) ) ;
#11 = DIRECTION ( 'NONE',  ( 1.000000000000000000, 0.0000000000000000000, 0.0000000000000000000 ) ) ;
#12 = CC_DESIGN_DATE_AND_TIME_ASSIGNMENT ( #1, #34, ( #42 ) ) ;
#13 = DIRECTION ( 'NONE',  ( -1.000000000000000000, 0.0000000000000000000, 0.0000000000000000000 ) ) ;
#14 = APPROVAL_DATE_TIME ( #15, #36 ) ;
#15 = DATE_AND_TIME ( #16, #18 ) ;
#16 = CALENDAR_DATE ( 2017, 10, 4 ) ;
#17 = AXIS2_PLACEMENT_3D ( 'NONE', #60, #155, #130 ) ;
#18 = LOCAL_TIME ( 12, 49, 37.00000000000000000, #20 ) ;
#19 = APPROVAL_PERSON_ORGANIZATION ( #137, #9, #46 ) ;
#20 = COORDINATED_UNIVERSAL_TIME_OFFSET ( 5, 0, .BEHIND. ) ;
#21 = PERSON_AND_ORGANIZATION ( #173, #73 ) ;
#22 = APPROVAL_PERSON_ORGANIZATION ( #24, #36, #105 ) ;
#23 = APPROVAL_STATUS ( 'not_yet_approved' ) ;
#24 = PERSON_AND_ORGANIZATION ( #173, #73 ) ;
#25 = PLANE ( 'NONE',  #55 ) ;
#26 = APPROVAL_STATUS ( 'not_yet_approved' ) ;
#27 = APPROVAL_STATUS ( 'not_yet_approved' ) ;
#28 = PERSON_AND_ORGANIZATION ( #173, #73 ) ;
#29 = CC_DESIGN_PERSON_AND_ORGANIZATION_ASSIGNMENT ( #8, #152, ( #42 ) ) ;
#30 = DIRECTION ( 'NONE',  ( 0.0000000000000000000, 0.0000000000000000000, 1.000000000000000000 ) ) ;
#31 = ORIENTED_EDGE ( 'NONE', *, *, #120, .F. ) ;
#32 = PERSON_AND_ORGANIZATION_ROLE ( 'creator' ) ;
#33 = CC_DESIGN_APPROVAL ( #36, ( #42 ) ) ;
#34 = DATE_TIME_ROLE ( 'creation_date' ) ;
#35 = PERSON_AND_ORGANIZATION_ROLE ( 'classification_officer' ) ;
#36 = APPROVAL ( #23, 'UNSPECIFIED' ) ;
#37 = ORIENTED_EDGE ( 'NONE', *, *, #120, .T. ) ;
#38 = PERSON_AND_ORGANIZATION ( #173, #73 ) ;
#39 = CC_DESIGN_APPROVAL ( #81, ( #118 ) ) ;
#40 = SHAPE_DEFINITION_REPRESENTATION ( #66, #44 ) ;
#41 = APPLICATION_PROTOCOL_DEFINITION ( 'international standard', 'config_control_design', 1994, #168 ) ;
#42 = PRODUCT_DEFINITION ( 'UNKNOWN', '', #7, #162 ) ;
#43 = CARTESIAN_POINT ( 'NONE',  ( -37.50000000000000700, 0.0000000000000000000, 3.000000000000000000 ) ) ;
#44 = ADVANCED_BREP_SHAPE_REPRESENTATION ( 'Web Model 48414_48414', ( #58, #50 ), #52 ) ;
#45 = SECURITY_CLASSIFICATION_LEVEL ( 'unclassified' ) ;
#46 = APPROVAL_ROLE ( '' ) ;
#47 = CC_DESIGN_PERSON_AND_ORGANIZATION_ASSIGNMENT ( #28, #114, ( #79 ) ) ;
#48 = DIRECTION ( 'NONE',  ( 0.0000000000000000000, 0.0000000000000000000, 1.000000000000000000 ) ) ;
#49 = CYLINDRICAL_SURFACE ( 'NONE', #17, 37.50000000000000700 ) ;
#50 = AXIS2_PLACEMENT_3D ( 'NONE', #122, #48, #175 ) ;
#51 = CALENDAR_DATE ( 2017, 10, 4 ) ;
#52 =( GEOMETRIC_REPRESENTATION_CONTEXT ( 3 ) GLOBAL_UNCERTAINTY_ASSIGNED_CONTEXT ( ( #91 ) ) GLOBAL_UNIT_ASSIGNED_CONTEXT ( ( #164, #167, #99 ) ) REPRESENTATION_CONTEXT ( 'NONE', 'WORKASPACE' ) );
#53 = APPLICATION_PROTOCOL_DEFINITION ( 'international standard', 'config_control_design', 1994, #133 ) ;
#54 = CARTESIAN_POINT ( 'NONE',  ( 0.0000000000000000000, 0.0000000000000000000, 0.0000000000000000000 ) ) ;
#55 = AXIS2_PLACEMENT_3D ( 'NONE', #142, #170, #116 ) ;
#56 = LOCAL_TIME ( 12, 49, 37.00000000000000000, #163 ) ;
#57 = LINE ( 'NONE', #43, #64 ) ;
#58 = MANIFOLD_SOLID_BREP ( 'Extrude1', #86 ) ;
#59 = CIRCLE ( 'NONE', #76, 37.50000000000000700 ) ;
#60 = CARTESIAN_POINT ( 'NONE',  ( 0.0000000000000000000, 0.0000000000000000000, 3.000000000000000000 ) ) ;
#61 = PLANE ( 'NONE',  #103 ) ;
#62 = CARTESIAN_POINT ( 'NONE',  ( 0.0000000000000000000, 0.0000000000000000000, 3.000000000000000000 ) ) ;
#63 = CIRCLE ( 'NONE', #71, 37.50000000000000700 ) ;
#64 = VECTOR ( 'NONE', #143, 1000.000000000000000 ) ;
#65 = DIRECTION ( 'NONE',  ( 1.000000000000000000, 0.0000000000000000000, 0.0000000000000000000 ) ) ;
#66 = PRODUCT_DEFINITION_SHAPE ( 'NONE', 'NONE',  #42 ) ;
#67 = CALENDAR_DATE ( 2017, 10, 4 ) ;
#68 = VECTOR ( 'NONE', #93, 1000.000000000000000 ) ;
#69 = CC_DESIGN_PERSON_AND_ORGANIZATION_ASSIGNMENT ( #83, #32, ( #7 ) ) ;
#70 = FACE_OUTER_BOUND ( 'NONE', #106, .T. ) ;
#71 = AXIS2_PLACEMENT_3D ( 'NONE', #54, #30, #11 ) ;
#72 = AXIS2_PLACEMENT_3D ( 'NONE', #62, #157, #13 ) ;
#73 = ORGANIZATION ( 'UNSPECIFIED', 'UNSPECIFIED', '' ) ;
#74 = CARTESIAN_POINT ( 'NONE',  ( -37.50000000000000700, 0.0000000000000000000, 3.000000000000000000 ) ) ;
#75 = CIRCLE ( 'NONE', #107, 37.50000000000000700 ) ;
#76 = AXIS2_PLACEMENT_3D ( 'NONE', #10, #87, #172 ) ;
#77 = CARTESIAN_POINT ( 'NONE',  ( 0.0000000000000000000, 0.0000000000000000000, 0.0000000000000000000 ) ) ;
#78 = CIRCLE ( 'NONE', #97, 37.50000000000000700 ) ;
#79 = PRODUCT ( 'Web Model 48414_48414', 'Web Model 48414_48414', '', ( #112 ) ) ;
#80 = ORIENTED_EDGE ( 'NONE', *, *, #129, .F. ) ;
#81 = APPROVAL ( #26, 'UNSPECIFIED' ) ;
#82 = ADVANCED_FACE ( 'NONE', ( #96 ), #61, .F. ) ;
#83 = PERSON_AND_ORGANIZATION ( #173, #73 ) ;
#84 = APPROVAL_DATE_TIME ( #6, #81 ) ;
#85 = ORIENTED_EDGE ( 'NONE', *, *, #124, .T. ) ;
#86 = CLOSED_SHELL ( 'NONE', ( #174, #134, #141, #82 ) ) ;
#87 = DIRECTION ( 'NONE',  ( 0.0000000000000000000, 0.0000000000000000000, 1.000000000000000000 ) ) ;
#88 = ORIENTED_EDGE ( 'NONE', *, *, #145, .T. ) ;
#89 = DIRECTION ( 'NONE',  ( 0.0000000000000000000, 0.0000000000000000000, 1.000000000000000000 ) ) ;
#90 = LINE ( 'NONE', #161, #68 ) ;
#91 = UNCERTAINTY_MEASURE_WITH_UNIT (LENGTH_MEASURE( 1.000000000000000100E-005 ), #164, 'distance_accuracy_value', 'NONE');
#92 = ORIENTED_EDGE ( 'NONE', *, *, #129, .T. ) ;
#93 = DIRECTION ( 'NONE',  ( -0.0000000000000000000, -0.0000000000000000000, -1.000000000000000000 ) ) ;
#94 = COORDINATED_UNIVERSAL_TIME_OFFSET ( 5, 0, .BEHIND. ) ;
#95 = APPROVAL_PERSON_ORGANIZATION ( #21, #81, #171 ) ;
#96 = FACE_OUTER_BOUND ( 'NONE', #128, .T. ) ;
#97 = AXIS2_PLACEMENT_3D ( 'NONE', #146, #166, #65 ) ;
#98 = CC_DESIGN_APPROVAL ( #9, ( #7 ) ) ;
#99 =( NAMED_UNIT ( * ) SI_UNIT ( $, .STERADIAN. ) SOLID_ANGLE_UNIT ( ) );
#100 = ORIENTED_EDGE ( 'NONE', *, *, #151, .F. ) ;
#101 = CARTESIAN_POINT ( 'NONE',  ( 37.50000000000000700, 4.592425496802575200E-015, 0.0000000000000000000 ) ) ;
#102 = DIRECTION ( 'NONE',  ( 1.000000000000000000, 0.0000000000000000000, -0.0000000000000000000 ) ) ;
#103 = AXIS2_PLACEMENT_3D ( 'NONE', #77, #89, #102 ) ;
#104 = ORIENTED_EDGE ( 'NONE', *, *, #151, .T. ) ;
#105 = APPROVAL_ROLE ( '' ) ;
#106 = EDGE_LOOP ( 'NONE', ( #37, #147 ) ) ;
#107 = AXIS2_PLACEMENT_3D ( 'NONE', #135, #144, #110 ) ;
#108 = EDGE_LOOP ( 'NONE', ( #113, #92, #85, #136 ) ) ;
#109 = CC_DESIGN_PERSON_AND_ORGANIZATION_ASSIGNMENT ( #149, #154, ( #7 ) ) ;
#110 = DIRECTION ( 'NONE',  ( 1.000000000000000000, 0.0000000000000000000, 0.0000000000000000000 ) ) ;
#111 = COORDINATED_UNIVERSAL_TIME_OFFSET ( 5, 0, .BEHIND. ) ;
#112 = MECHANICAL_CONTEXT ( 'NONE', #168, 'mechanical' ) ;
#113 = ORIENTED_EDGE ( 'NONE', *, *, #140, .F. ) ;
#114 = PERSON_AND_ORGANIZATION_ROLE ( 'design_owner' ) ;
#115 = FACE_OUTER_BOUND ( 'NONE', #108, .T. ) ;
#116 = DIRECTION ( 'NONE',  ( 1.000000000000000000, 0.0000000000000000000, -0.0000000000000000000 ) ) ;
#117 = EDGE_LOOP ( 'NONE', ( #80, #31, #88, #104 ) ) ;
#118 = SECURITY_CLASSIFICATION ( '', '', #45 ) ;
#119 = VERTEX_POINT ( 'NONE', #101 ) ;
#120 = EDGE_CURVE ( 'NONE', #150, #121, #75, .T. ) ;
#121 = VERTEX_POINT ( 'NONE', #132 ) ;
#122 = CARTESIAN_POINT ( 'NONE',  ( 0.0000000000000000000, 0.0000000000000000000, 0.0000000000000000000 ) ) ;
#123 = DATE_AND_TIME ( #51, #160 ) ;
#124 = EDGE_CURVE ( 'NONE', #119, #158, #78, .T. ) ;
#125 = CALENDAR_DATE ( 2017, 10, 4 ) ;
#126 = ORIENTED_EDGE ( 'NONE', *, *, #124, .F. ) ;
#127 = CC_DESIGN_DATE_AND_TIME_ASSIGNMENT ( #139, #138, ( #118 ) ) ;
#128 = EDGE_LOOP ( 'NONE', ( #100, #126 ) ) ;
#129 = EDGE_CURVE ( 'NONE', #121, #119, #90, .T. ) ;
#130 = DIRECTION ( 'NONE',  ( -1.000000000000000000, 0.0000000000000000000, 0.0000000000000000000 ) ) ;
#131 = FACE_OUTER_BOUND ( 'NONE', #117, .T. ) ;
#132 = CARTESIAN_POINT ( 'NONE',  ( 37.50000000000000700, 4.592425496802575200E-015, 3.000000000000000000 ) ) ;
#133 = APPLICATION_CONTEXT ( 'configuration controlled 3d designs of mechanical parts and assemblies' ) ;
#134 = ADVANCED_FACE ( 'NONE', ( #131 ), #165, .T. ) ;
#135 = CARTESIAN_POINT ( 'NONE',  ( 0.0000000000000000000, 0.0000000000000000000, 3.000000000000000000 ) ) ;
#136 = ORIENTED_EDGE ( 'NONE', *, *, #145, .F. ) ;
#137 = PERSON_AND_ORGANIZATION ( #173, #73 ) ;
#138 = DATE_TIME_ROLE ( 'classification_date' ) ;
#139 = DATE_AND_TIME ( #67, #169 ) ;
#140 = EDGE_CURVE ( 'NONE', #121, #150, #59, .T. ) ;
#141 = ADVANCED_FACE ( 'NONE', ( #70 ), #25, .T. ) ;
#142 = CARTESIAN_POINT ( 'NONE',  ( 0.0000000000000000000, 0.0000000000000000000, 3.000000000000000000 ) ) ;
#143 = DIRECTION ( 'NONE',  ( -0.0000000000000000000, -0.0000000000000000000, -1.000000000000000000 ) ) ;
#144 = DIRECTION ( 'NONE',  ( 0.0000000000000000000, 0.0000000000000000000, 1.000000000000000000 ) ) ;
#145 = EDGE_CURVE ( 'NONE', #150, #158, #57, .T. ) ;
#146 = CARTESIAN_POINT ( 'NONE',  ( 0.0000000000000000000, 0.0000000000000000000, 0.0000000000000000000 ) ) ;
#147 = ORIENTED_EDGE ( 'NONE', *, *, #140, .T. ) ;
#148 = PRODUCT_RELATED_PRODUCT_CATEGORY ( 'detail', '', ( #79 ) ) ;
#149 = PERSON_AND_ORGANIZATION ( #173, #73 ) ;
#150 = VERTEX_POINT ( 'NONE', #74 ) ;
#151 = EDGE_CURVE ( 'NONE', #158, #119, #63, .T. ) ;
#152 = PERSON_AND_ORGANIZATION_ROLE ( 'creator' ) ;
#153 = CARTESIAN_POINT ( 'NONE',  ( -37.50000000000000700, 0.0000000000000000000, 0.0000000000000000000 ) ) ;
#154 = PERSON_AND_ORGANIZATION_ROLE ( 'design_supplier' ) ;
#155 = DIRECTION ( 'NONE',  ( -0.0000000000000000000, -0.0000000000000000000, -1.000000000000000000 ) ) ;
#156 = CC_DESIGN_SECURITY_CLASSIFICATION ( #118, ( #7 ) ) ;
#157 = DIRECTION ( 'NONE',  ( -0.0000000000000000000, -0.0000000000000000000, -1.000000000000000000 ) ) ;
#158 = VERTEX_POINT ( 'NONE', #153 ) ;
#159 = CC_DESIGN_PERSON_AND_ORGANIZATION_ASSIGNMENT ( #38, #35, ( #118 ) ) ;
#160 = LOCAL_TIME ( 12, 49, 37.00000000000000000, #94 ) ;
#161 = CARTESIAN_POINT ( 'NONE',  ( 37.50000000000000700, 4.592425496802575200E-015, 3.000000000000000000 ) ) ;
#162 = DESIGN_CONTEXT ( 'detailed design', #133, 'design' ) ;
#163 = COORDINATED_UNIVERSAL_TIME_OFFSET ( 5, 0, .BEHIND. ) ;
#164 =( LENGTH_UNIT ( ) NAMED_UNIT ( * ) SI_UNIT ( .MILLI., .METRE. ) );
#165 = CYLINDRICAL_SURFACE ( 'NONE', #72, 37.50000000000000700 ) ;
#166 = DIRECTION ( 'NONE',  ( 0.0000000000000000000, 0.0000000000000000000, 1.000000000000000000 ) ) ;
#167 =( NAMED_UNIT ( * ) PLANE_ANGLE_UNIT ( ) SI_UNIT ( $, .RADIAN. ) );
#168 = APPLICATION_CONTEXT ( 'configuration controlled 3d designs of mechanical parts and assemblies' ) ;
#169 = LOCAL_TIME ( 12, 49, 37.00000000000000000, #111 ) ;
#170 = DIRECTION ( 'NONE',  ( 0.0000000000000000000, 0.0000000000000000000, 1.000000000000000000 ) ) ;
#171 = APPROVAL_ROLE ( '' ) ;
#172 = DIRECTION ( 'NONE',  ( 1.000000000000000000, 0.0000000000000000000, 0.0000000000000000000 ) ) ;
#173 = PERSON ( 'UNSPECIFIED', 'UNSPECIFIED', 'UNSPECIFIED', ('UNSPECIFIED'), ('UNSPECIFIED'), ('UNSPECIFIED') ) ;
#174 = ADVANCED_FACE ( 'NONE', ( #115 ), #49, .T. ) ;
#175 = DIRECTION ( 'NONE',  ( 1.000000000000000000, 0.0000000000000000000, 0.0000000000000000000 ) ) ;
ENDSEC;
END-ISO-10303-21;
