ISO-10303-21;
HEADER;
FILE_DESCRIPTION (( 'STEP AP214' ),
    '1' );
FILE_NAME ('4854-E0W.STEP',
    '2009-12-21T17:15:25',
    ( ' ' ),
    ( ' ' ),
    'SwSTEP 2.0',
    'SolidWorks 2009',
    '' );
FILE_SCHEMA (( 'AUTOMOTIVE_DESIGN' ));
ENDSEC;

DATA;
#1 = VERTEX_POINT ( 'NONE', #21 ) ;
#2 = CARTESIAN_POINT ( 'NONE',  ( 0.0000000000000000000, 12.69999999999999200, 0.5144459691694943700 ) ) ;
#3 = VERTEX_POINT ( 'NONE', #20 ) ;
#4 = VERTEX_POINT ( 'NONE', #2 ) ;
#5 = ORIENTED_EDGE ( 'NONE', *, *, #6, .T. ) ;
#6 = EDGE_CURVE ( 'NONE', #1, #7, #27, .T. ) ;
#7 = VERTEX_POINT ( 'NONE', #96 ) ;
#8 = VERTEX_POINT ( 'NONE', #95 ) ;
#9 = EDGE_CURVE ( 'NONE', #4, #1, #93, .T. ) ;
#10 = ORIENTED_EDGE ( 'NONE', *, *, #275, .F. ) ;
#11 = ORIENTED_EDGE ( 'NONE', *, *, #9, .F. ) ;
#12 = ORIENTED_EDGE ( 'NONE', *, *, #9, .T. ) ;
#13 = ADVANCED_FACE ( 'NONE', ( #94 ), #79, .F. ) ;
#14 = ORIENTED_EDGE ( 'NONE', *, *, #17, .T. ) ;
#15 = EDGE_CURVE ( 'NONE', #3, #4, #102, .T. ) ;
#16 = MANIFOLD_SOLID_BREP ( 'NONE', #22 ) ;
#17 = EDGE_CURVE ( 'NONE', #297, #1, #46, .T. ) ;
#18 = ADVANCED_BREP_SHAPE_REPRESENTATION ( '4854-E0W', ( #16, #271 ), #248 ) ;
#19 = ORIENTED_EDGE ( 'NONE', *, *, #15, .F. ) ;
#20 = CARTESIAN_POINT ( 'NONE',  ( 12.70000000000000300, 0.0000000000000000000, 0.5144459691694917000 ) ) ;
#21 = CARTESIAN_POINT ( 'NONE',  ( -12.70000000000000300, 1.555250069354419500E-015, 0.5144459691694917000 ) ) ;
#22 = CLOSED_SHELL ( 'NONE', ( #13, #292, #276, #279, #286, #317 ) ) ;
#23 = AXIS2_PLACEMENT_3D ( 'NONE', #28, #29, #26 ) ;
#24 = STYLED_ITEM ( 'NONE', ( #25 ), #13 ) ;
#25 = PRESENTATION_STYLE_ASSIGNMENT (( #30 ) ) ;
#26 = DIRECTION ( 'NONE',  ( 1.000000000000000000, 0.0000000000000000000, 0.0000000000000000000 ) ) ;
#27 = CIRCLE ( 'NONE', #23, 12.70000000000000100 ) ;
#28 = CARTESIAN_POINT ( 'NONE',  ( 0.0000000000000000000, 0.0000000000000000000, 0.5144459691694917000 ) ) ;
#29 = DIRECTION ( 'NONE',  ( -0.0000000000000000000, -0.0000000000000000000, 1.000000000000000000 ) ) ;
#30 = SURFACE_STYLE_USAGE ( .BOTH. , #31 ) ;
#31 = SURFACE_SIDE_STYLE ('',( #89 ) ) ;
#32 =( GEOMETRIC_REPRESENTATION_CONTEXT ( 3 ) GLOBAL_UNCERTAINTY_ASSIGNED_CONTEXT ( ( #36 ) ) GLOBAL_UNIT_ASSIGNED_CONTEXT ( ( #33, #37, #40 ) ) REPRESENTATION_CONTEXT ( 'NONE', 'WORKASPACE' ) );
#33 =( LENGTH_UNIT ( ) NAMED_UNIT ( * ) SI_UNIT ( .MILLI., .METRE. ) );
#34 = DIRECTION ( 'NONE',  ( 1.000000000000000000, 0.0000000000000000000, 0.0000000000000000000 ) ) ;
#35 = DIRECTION ( 'NONE',  ( -0.0000000000000000000, -0.0000000000000000000, 1.000000000000000000 ) ) ;
#36 = UNCERTAINTY_MEASURE_WITH_UNIT (LENGTH_MEASURE( 1.000000000000000100E-005 ), #33, 'distance_accuracy_value', 'NONE');
#37 =( NAMED_UNIT ( * ) PLANE_ANGLE_UNIT ( ) SI_UNIT ( $, .RADIAN. ) );
#38 = PRESENTATION_LAYER_ASSIGNMENT (  '', '', ( #24 ) ) ;
#39 = MECHANICAL_DESIGN_GEOMETRIC_PRESENTATION_REPRESENTATION (  '', ( #24 ), #32 ) ;
#40 =( NAMED_UNIT ( * ) SI_UNIT ( $, .STERADIAN. ) SOLID_ANGLE_UNIT ( ) );
#41 =( NAMED_UNIT ( * ) PLANE_ANGLE_UNIT ( ) SI_UNIT ( $, .RADIAN. ) );
#42 =( GEOMETRIC_REPRESENTATION_CONTEXT ( 3 ) GLOBAL_UNCERTAINTY_ASSIGNED_CONTEXT ( ( #47 ) ) GLOBAL_UNIT_ASSIGNED_CONTEXT ( ( #130, #41, #45 ) ) REPRESENTATION_CONTEXT ( 'NONE', 'WORKASPACE' ) );
#43 = UNCERTAINTY_MEASURE_WITH_UNIT (LENGTH_MEASURE( 1.000000000000000100E-005 ), #111, 'distance_accuracy_value', 'NONE');
#44 =( GEOMETRIC_REPRESENTATION_CONTEXT ( 3 ) GLOBAL_UNCERTAINTY_ASSIGNED_CONTEXT ( ( #43 ) ) GLOBAL_UNIT_ASSIGNED_CONTEXT ( ( #111, #107, #113 ) ) REPRESENTATION_CONTEXT ( 'NONE', 'WORKASPACE' ) );
#45 =( NAMED_UNIT ( * ) SI_UNIT ( $, .STERADIAN. ) SOLID_ANGLE_UNIT ( ) );
#46 = LINE ( 'NONE', #48, #50 ) ;
#47 = UNCERTAINTY_MEASURE_WITH_UNIT (LENGTH_MEASURE( 1.000000000000000100E-005 ), #130, 'distance_accuracy_value', 'NONE');
#48 = CARTESIAN_POINT ( 'NONE',  ( -12.69999999999999900, 1.555250069354419100E-015, 9.077659990267106200 ) ) ;
#49 = DIRECTION ( 'NONE',  ( -0.0000000000000000000, -0.0000000000000000000, 1.000000000000000000 ) ) ;
#50 = VECTOR ( 'NONE', #49, 1000.000000000000000 ) ;
#51 = MECHANICAL_DESIGN_GEOMETRIC_PRESENTATION_REPRESENTATION (  '', ( #65 ), #64 ) ;
#52 =( NAMED_UNIT ( * ) PLANE_ANGLE_UNIT ( ) SI_UNIT ( $, .RADIAN. ) );
#53 = SURFACE_STYLE_FILL_AREA ( #60 ) ;
#54 = COLOUR_RGB ( '',0.7960784313725489700, 0.8235294117647058400, 0.9372549019607843100 ) ;
#55 = PRODUCT ( '4854-E0W', '4854-E0W', '', ( #62 ) ) ;
#56 = FILL_AREA_STYLE_COLOUR ( '', #54 ) ;
#57 =( LENGTH_UNIT ( ) NAMED_UNIT ( * ) SI_UNIT ( .MILLI., .METRE. ) );
#58 = APPLICATION_CONTEXT ( 'automotive_design' ) ;
#59 = PRESENTATION_STYLE_ASSIGNMENT (( #69 ) ) ;
#60 = FILL_AREA_STYLE ('',( #56 ) ) ;
#61 =( NAMED_UNIT ( * ) SI_UNIT ( $, .STERADIAN. ) SOLID_ANGLE_UNIT ( ) );
#62 = PRODUCT_CONTEXT ( 'NONE', #58, 'mechanical' ) ;
#63 = APPLICATION_PROTOCOL_DEFINITION ( 'draft international standard', 'automotive_design', 1998, #58 ) ;
#64 =( GEOMETRIC_REPRESENTATION_CONTEXT ( 3 ) GLOBAL_UNCERTAINTY_ASSIGNED_CONTEXT ( ( #66 ) ) GLOBAL_UNIT_ASSIGNED_CONTEXT ( ( #57, #52, #61 ) ) REPRESENTATION_CONTEXT ( 'NONE', 'WORKASPACE' ) );
#65 = STYLED_ITEM ( 'NONE', ( #59 ), #18 ) ;
#66 = UNCERTAINTY_MEASURE_WITH_UNIT (LENGTH_MEASURE( 1.000000000000000100E-005 ), #57, 'distance_accuracy_value', 'NONE');
#67 = SURFACE_SIDE_STYLE ('',( #53 ) ) ;
#68 = PRESENTATION_LAYER_ASSIGNMENT (  '', '', ( #65 ) ) ;
#69 = SURFACE_STYLE_USAGE ( .BOTH. , #67 ) ;
#70 = SHAPE_DEFINITION_REPRESENTATION ( #73, #18 ) ;
#71 = PRODUCT_RELATED_PRODUCT_CATEGORY ( 'part', '', ( #55 ) ) ;
#72 = APPLICATION_PROTOCOL_DEFINITION ( 'draft international standard', 'automotive_design', 1998, #77 ) ;
#73 = PRODUCT_DEFINITION_SHAPE ( 'NONE', 'NONE',  #76 ) ;
#74 = PRODUCT_DEFINITION_CONTEXT ( 'detailed design', #77, 'design' ) ;
#75 = PRODUCT_DEFINITION_FORMATION_WITH_SPECIFIED_SOURCE ( 'ANY', '', #55, .NOT_KNOWN. ) ;
#76 = PRODUCT_DEFINITION ( 'UNKNOWN', '', #75, #74 ) ;
#77 = APPLICATION_CONTEXT ( 'automotive_design' ) ;
#78 = DIRECTION ( 'NONE',  ( -1.000000000000000000, 0.0000000000000000000, 0.0000000000000000000 ) ) ;
#79 = SPHERICAL_SURFACE ( 'NONE', #84, 233.8499999999999900 ) ;
#80 = DIRECTION ( 'NONE',  ( 0.0000000000000000000, 1.000000000000000000, 0.0000000000000000000 ) ) ;
#81 = DIRECTION ( 'NONE',  ( 0.0000000000000000000, 1.000000000000000000, 0.0000000000000000000 ) ) ;
#82 = DIRECTION ( 'NONE',  ( -1.000000000000000000, 0.0000000000000000000, 0.0000000000000000000 ) ) ;
#83 = SPHERICAL_SURFACE ( 'NONE', #86, 83.35999999999999900 ) ;
#84 = AXIS2_PLACEMENT_3D ( 'NONE', #87, #78, #80 ) ;
#85 = CARTESIAN_POINT ( 'NONE',  ( 0.0000000000000000000, 0.0000000000000000000, -81.87244376457394400 ) ) ;
#86 = AXIS2_PLACEMENT_3D ( 'NONE', #85, #82, #81 ) ;
#87 = CARTESIAN_POINT ( 'NONE',  ( 0.0000000000000000000, 0.0000000000000000000, -234.9924437645739200 ) ) ;
#88 = DIRECTION ( 'NONE',  ( -0.0000000000000000000, -0.0000000000000000000, 1.000000000000000000 ) ) ;
#89 = SURFACE_STYLE_FILL_AREA ( #91 ) ;
#90 = COLOUR_RGB ( '',0.9568627450980391500, 0.9490196078431372100, 0.9607843137254902200 ) ;
#91 = FILL_AREA_STYLE ('',( #99 ) ) ;
#92 = DIRECTION ( 'NONE',  ( 1.000000000000000000, 0.0000000000000000000, 0.0000000000000000000 ) ) ;
#93 = CIRCLE ( 'NONE', #98, 12.70000000000000100 ) ;
#94 = FACE_OUTER_BOUND ( 'NONE', #298, .T. ) ;
#95 = CARTESIAN_POINT ( 'NONE',  ( 0.0000000000000000000, 5.104159282731668900E-015, 1.487556235426054800 ) ) ;
#96 = CARTESIAN_POINT ( 'NONE',  ( -1.555250069354418500E-015, -12.69999999999999200, 0.5144459691694943700 ) ) ;
#97 = CARTESIAN_POINT ( 'NONE',  ( 0.0000000000000000000, 0.0000000000000000000, 0.5144459691694917000 ) ) ;
#98 = AXIS2_PLACEMENT_3D ( 'NONE', #97, #88, #92 ) ;
#99 = FILL_AREA_STYLE_COLOUR ( '', #90 ) ;
#100 = CARTESIAN_POINT ( 'NONE',  ( 0.0000000000000000000, 0.0000000000000000000, 0.5144459691694917000 ) ) ;
#101 = AXIS2_PLACEMENT_3D ( 'NONE', #100, #35, #34 ) ;
#102 = CIRCLE ( 'NONE', #101, 12.70000000000000100 ) ;
#103 = SURFACE_SIDE_STYLE ('',( #104 ) ) ;
#104 = SURFACE_STYLE_FILL_AREA ( #112 ) ;
#105 = PRESENTATION_STYLE_ASSIGNMENT (( #106 ) ) ;
#106 = SURFACE_STYLE_USAGE ( .BOTH. , #103 ) ;
#107 =( NAMED_UNIT ( * ) PLANE_ANGLE_UNIT ( ) SI_UNIT ( $, .RADIAN. ) );
#108 = FILL_AREA_STYLE_COLOUR ( '', #115 ) ;
#109 = PRESENTATION_LAYER_ASSIGNMENT (  '', '', ( #110 ) ) ;
#110 = STYLED_ITEM ( 'NONE', ( #105 ), #16 ) ;
#111 =( LENGTH_UNIT ( ) NAMED_UNIT ( * ) SI_UNIT ( .MILLI., .METRE. ) );
#112 = FILL_AREA_STYLE ('',( #108 ) ) ;
#113 =( NAMED_UNIT ( * ) SI_UNIT ( $, .STERADIAN. ) SOLID_ANGLE_UNIT ( ) );
#114 = MECHANICAL_DESIGN_GEOMETRIC_PRESENTATION_REPRESENTATION (  '', ( #110 ), #44 ) ;
#115 = COLOUR_RGB ( '',0.7960784313725489700, 0.8235294117647058400, 0.9372549019607843100 ) ;
#116 = FILL_AREA_STYLE_COLOUR ( '', #119 ) ;
#117 = FACE_OUTER_BOUND ( 'NONE', #277, .T. ) ;
#118 = FILL_AREA_STYLE ('',( #116 ) ) ;
#119 = COLOUR_RGB ( '',0.9568627450980391500, 0.9490196078431372100, 0.9607843137254902200 ) ;
#120 = CARTESIAN_POINT ( 'NONE',  ( 12.69999999999999900, 0.0000000000000000000, 9.077659990267106200 ) ) ;
#121 = PRESENTATION_LAYER_ASSIGNMENT (  '', '', ( #122 ) ) ;
#122 = STYLED_ITEM ( 'NONE', ( #123 ), #276 ) ;
#123 = PRESENTATION_STYLE_ASSIGNMENT (( #126 ) ) ;
#124 = DIRECTION ( 'NONE',  ( -0.0000000000000000000, -0.0000000000000000000, 1.000000000000000000 ) ) ;
#125 = VECTOR ( 'NONE', #124, 1000.000000000000000 ) ;
#126 = SURFACE_STYLE_USAGE ( .BOTH. , #127 ) ;
#127 = SURFACE_SIDE_STYLE ('',( #128 ) ) ;
#128 = SURFACE_STYLE_FILL_AREA ( #118 ) ;
#129 = LINE ( 'NONE', #120, #125 ) ;
#130 =( LENGTH_UNIT ( ) NAMED_UNIT ( * ) SI_UNIT ( .MILLI., .METRE. ) );
#131 = MECHANICAL_DESIGN_GEOMETRIC_PRESENTATION_REPRESENTATION (  '', ( #122 ), #42 ) ;
#132 = STYLED_ITEM ( 'NONE', ( #133 ), #279 ) ;
#133 = PRESENTATION_STYLE_ASSIGNMENT (( #136 ) ) ;
#134 =( GEOMETRIC_REPRESENTATION_CONTEXT ( 3 ) GLOBAL_UNCERTAINTY_ASSIGNED_CONTEXT ( ( #163 ) ) GLOBAL_UNIT_ASSIGNED_CONTEXT ( ( #148, #153, #162 ) ) REPRESENTATION_CONTEXT ( 'NONE', 'WORKASPACE' ) );
#135 = AXIS2_PLACEMENT_3D ( 'NONE', #168, #167, #172 ) ;
#136 = SURFACE_STYLE_USAGE ( .BOTH. , #137 ) ;
#137 = SURFACE_SIDE_STYLE ('',( #138 ) ) ;
#138 = SURFACE_STYLE_FILL_AREA ( #160 ) ;
#139 = FILL_AREA_STYLE_COLOUR ( '', #140 ) ;
#140 = COLOUR_RGB ( '',0.9568627450980391500, 0.9490196078431372100, 0.9607843137254902200 ) ;
#141 = DIRECTION ( 'NONE',  ( 1.000000000000000000, 0.0000000000000000000, 0.0000000000000000000 ) ) ;
#142 = DIRECTION ( 'NONE',  ( -0.0000000000000000000, -0.0000000000000000000, 1.000000000000000000 ) ) ;
#143 = CARTESIAN_POINT ( 'NONE',  ( 0.0000000000000000000, 0.0000000000000000000, 0.5144459691694917000 ) ) ;
#144 = AXIS2_PLACEMENT_3D ( 'NONE', #143, #142, #141 ) ;
#145 = FACE_OUTER_BOUND ( 'NONE', #287, .T. ) ;
#146 =( NAMED_UNIT ( * ) SI_UNIT ( $, .STERADIAN. ) SOLID_ANGLE_UNIT ( ) );
#147 =( NAMED_UNIT ( * ) PLANE_ANGLE_UNIT ( ) SI_UNIT ( $, .RADIAN. ) );
#148 =( LENGTH_UNIT ( ) NAMED_UNIT ( * ) SI_UNIT ( .MILLI., .METRE. ) );
#149 = UNCERTAINTY_MEASURE_WITH_UNIT (LENGTH_MEASURE( 1.000000000000000100E-005 ), #154, 'distance_accuracy_value', 'NONE');
#150 = CIRCLE ( 'NONE', #144, 12.70000000000000100 ) ;
#151 = DIRECTION ( 'NONE',  ( 0.0000000000000000000, 1.000000000000000000, 0.0000000000000000000 ) ) ;
#152 = CIRCLE ( 'NONE', #135, 83.36000000000001400 ) ;
#153 =( NAMED_UNIT ( * ) PLANE_ANGLE_UNIT ( ) SI_UNIT ( $, .RADIAN. ) );
#154 =( LENGTH_UNIT ( ) NAMED_UNIT ( * ) SI_UNIT ( .MILLI., .METRE. ) );
#155 = MECHANICAL_DESIGN_GEOMETRIC_PRESENTATION_REPRESENTATION (  '', ( #132 ), #134 ) ;
#156 = PRESENTATION_LAYER_ASSIGNMENT (  '', '', ( #132 ) ) ;
#157 = SPHERICAL_SURFACE ( 'NONE', #166, 83.35999999999999900 ) ;
#158 = DIRECTION ( 'NONE',  ( -1.000000000000000000, 0.0000000000000000000, 0.0000000000000000000 ) ) ;
#159 = CARTESIAN_POINT ( 'NONE',  ( 0.0000000000000000000, 0.0000000000000000000, -81.87244376457394400 ) ) ;
#160 = FILL_AREA_STYLE ('',( #161 ) ) ;
#161 = FILL_AREA_STYLE_COLOUR ( '', #164 ) ;
#162 =( NAMED_UNIT ( * ) SI_UNIT ( $, .STERADIAN. ) SOLID_ANGLE_UNIT ( ) );
#163 = UNCERTAINTY_MEASURE_WITH_UNIT (LENGTH_MEASURE( 1.000000000000000100E-005 ), #148, 'distance_accuracy_value', 'NONE');
#164 = COLOUR_RGB ( '',0.9568627450980391500, 0.9490196078431372100, 0.9607843137254902200 ) ;
#165 =( GEOMETRIC_REPRESENTATION_CONTEXT ( 3 ) GLOBAL_UNCERTAINTY_ASSIGNED_CONTEXT ( ( #149 ) ) GLOBAL_UNIT_ASSIGNED_CONTEXT ( ( #154, #147, #146 ) ) REPRESENTATION_CONTEXT ( 'NONE', 'WORKASPACE' ) );
#166 = AXIS2_PLACEMENT_3D ( 'NONE', #159, #158, #151 ) ;
#167 = DIRECTION ( 'NONE',  ( 1.000000000000000000, 0.0000000000000000000, 0.0000000000000000000 ) ) ;
#168 = CARTESIAN_POINT ( 'NONE',  ( 0.0000000000000000000, 0.0000000000000000000, -81.87244376457394400 ) ) ;
#169 = MECHANICAL_DESIGN_GEOMETRIC_PRESENTATION_REPRESENTATION (  '', ( #173 ), #165 ) ;
#170 = PRESENTATION_LAYER_ASSIGNMENT (  '', '', ( #173 ) ) ;
#171 = FACE_OUTER_BOUND ( 'NONE', #280, .T. ) ;
#172 = DIRECTION ( 'NONE',  ( 0.0000000000000000000, 0.0000000000000000000, -1.000000000000000000 ) ) ;
#173 = STYLED_ITEM ( 'NONE', ( #174 ), #286 ) ;
#174 = PRESENTATION_STYLE_ASSIGNMENT (( #175 ) ) ;
#175 = SURFACE_STYLE_USAGE ( .BOTH. , #176 ) ;
#176 = SURFACE_SIDE_STYLE ('',( #177 ) ) ;
#177 = SURFACE_STYLE_FILL_AREA ( #178 ) ;
#178 = FILL_AREA_STYLE ('',( #139 ) ) ;
#179 = DIRECTION ( 'NONE',  ( -0.0000000000000000000, -0.0000000000000000000, 1.000000000000000000 ) ) ;
#180 =( NAMED_UNIT ( * ) SI_UNIT ( $, .STERADIAN. ) SOLID_ANGLE_UNIT ( ) );
#181 = AXIS2_PLACEMENT_3D ( 'NONE', #199, #200, #209 ) ;
#182 = UNCERTAINTY_MEASURE_WITH_UNIT (LENGTH_MEASURE( 1.000000000000000100E-005 ), #201, 'distance_accuracy_value', 'NONE');
#183 = FILL_AREA_STYLE_COLOUR ( '', #189 ) ;
#184 = DIRECTION ( 'NONE',  ( 1.000000000000000000, 0.0000000000000000000, 0.0000000000000000000 ) ) ;
#185 = DIRECTION ( 'NONE',  ( -0.0000000000000000000, -0.0000000000000000000, 1.000000000000000000 ) ) ;
#186 = SURFACE_SIDE_STYLE ('',( #187 ) ) ;
#187 = SURFACE_STYLE_FILL_AREA ( #188 ) ;
#188 = FILL_AREA_STYLE ('',( #183 ) ) ;
#189 = COLOUR_RGB ( '',0.9568627450980391500, 0.9490196078431372100, 0.9607843137254902200 ) ;
#190 = CARTESIAN_POINT ( 'NONE',  ( 0.0000000000000000000, 0.0000000000000000000, -1.487556235426047600 ) ) ;
#191 = CARTESIAN_POINT ( 'NONE',  ( -12.69999999999999900, 1.555250069354419100E-015, -1.487556235426047600 ) ) ;
#192 = DIRECTION ( 'NONE',  ( 1.000000000000000000, 0.0000000000000000000, 0.0000000000000000000 ) ) ;
#193 = DIRECTION ( 'NONE',  ( -0.0000000000000000000, -0.0000000000000000000, 1.000000000000000000 ) ) ;
#194 = AXIS2_PLACEMENT_3D ( 'NONE', #207, #193, #192 ) ;
#195 = CIRCLE ( 'NONE', #194, 12.69999999999999900 ) ;
#196 =( NAMED_UNIT ( * ) PLANE_ANGLE_UNIT ( ) SI_UNIT ( $, .RADIAN. ) );
#197 =( GEOMETRIC_REPRESENTATION_CONTEXT ( 3 ) GLOBAL_UNCERTAINTY_ASSIGNED_CONTEXT ( ( #182 ) ) GLOBAL_UNIT_ASSIGNED_CONTEXT ( ( #201, #196, #180 ) ) REPRESENTATION_CONTEXT ( 'NONE', 'WORKASPACE' ) );
#198 = CIRCLE ( 'NONE', #210, 12.69999999999999900 ) ;
#199 = CARTESIAN_POINT ( 'NONE',  ( 0.0000000000000000000, 0.0000000000000000000, 9.077659990267106200 ) ) ;
#200 = DIRECTION ( 'NONE',  ( -0.0000000000000000000, -0.0000000000000000000, 1.000000000000000000 ) ) ;
#201 =( LENGTH_UNIT ( ) NAMED_UNIT ( * ) SI_UNIT ( .MILLI., .METRE. ) );
#202 = MECHANICAL_DESIGN_GEOMETRIC_PRESENTATION_REPRESENTATION (  '', ( #204 ), #197 ) ;
#203 = PRESENTATION_LAYER_ASSIGNMENT (  '', '', ( #204 ) ) ;
#204 = STYLED_ITEM ( 'NONE', ( #205 ), #292 ) ;
#205 = PRESENTATION_STYLE_ASSIGNMENT (( #206 ) ) ;
#206 = SURFACE_STYLE_USAGE ( .BOTH. , #186 ) ;
#207 = CARTESIAN_POINT ( 'NONE',  ( 0.0000000000000000000, 0.0000000000000000000, -1.487556235426047600 ) ) ;
#208 = DIRECTION ( 'NONE',  ( 1.000000000000000000, 0.0000000000000000000, 0.0000000000000000000 ) ) ;
#209 = DIRECTION ( 'NONE',  ( 1.000000000000000000, 0.0000000000000000000, 0.0000000000000000000 ) ) ;
#210 = AXIS2_PLACEMENT_3D ( 'NONE', #190, #185, #184 ) ;
#211 = FACE_OUTER_BOUND ( 'NONE', #293, .T. ) ;
#212 = CIRCLE ( 'NONE', #220, 83.35999999999999900 ) ;
#213 = CYLINDRICAL_SURFACE ( 'NONE', #181, 12.69999999999999900 ) ;
#214 = CYLINDRICAL_SURFACE ( 'NONE', #216, 12.69999999999999900 ) ;
#215 = CARTESIAN_POINT ( 'NONE',  ( 0.0000000000000000000, 0.0000000000000000000, 9.077659990267106200 ) ) ;
#216 = AXIS2_PLACEMENT_3D ( 'NONE', #215, #179, #208 ) ;
#217 = DIRECTION ( 'NONE',  ( -1.224606353822377500E-016, -1.000000000000000000, 0.0000000000000000000 ) ) ;
#218 = DIRECTION ( 'NONE',  ( -1.000000000000000000, 1.224606353822377300E-016, 0.0000000000000000000 ) ) ;
#219 = CARTESIAN_POINT ( 'NONE',  ( 0.0000000000000000000, 0.0000000000000000000, -81.87244376457394400 ) ) ;
#220 = AXIS2_PLACEMENT_3D ( 'NONE', #219, #218, #217 ) ;
#221 = CIRCLE ( 'NONE', #232, 233.8499999999999900 ) ;
#222 = CIRCLE ( 'NONE', #230, 233.8500000000000200 ) ;
#223 = CARTESIAN_POINT ( 'NONE',  ( 0.0000000000000000000, 0.0000000000000000000, -234.9924437645739200 ) ) ;
#224 = CARTESIAN_POINT ( 'NONE',  ( 0.0000000000000000000, 0.0000000000000000000, -1.487556235426047600 ) ) ;
#225 = DIRECTION ( 'NONE',  ( 1.000000000000000000, 0.0000000000000000000, 0.0000000000000000000 ) ) ;
#226 = CARTESIAN_POINT ( 'NONE',  ( 0.0000000000000000000, 0.0000000000000000000, -234.9924437645739200 ) ) ;
#227 = CIRCLE ( 'NONE', #237, 12.69999999999999900 ) ;
#228 = DIRECTION ( 'NONE',  ( 0.0000000000000000000, 0.0000000000000000000, -1.000000000000000000 ) ) ;
#229 = DIRECTION ( 'NONE',  ( 1.000000000000000000, -0.0000000000000000000, 0.0000000000000000000 ) ) ;
#230 = AXIS2_PLACEMENT_3D ( 'NONE', #226, #229, #228 ) ;
#231 = CARTESIAN_POINT ( 'NONE',  ( 0.0000000000000000000, 12.69999999999989100, -1.487556235426044300 ) ) ;
#232 = AXIS2_PLACEMENT_3D ( 'NONE', #223, #244, #243 ) ;
#233 = CARTESIAN_POINT ( 'NONE',  ( 12.69999999999999900, 0.0000000000000000000, -1.487556235426047600 ) ) ;
#234 = DIRECTION ( 'NONE',  ( 1.000000000000000000, 0.0000000000000000000, 0.0000000000000000000 ) ) ;
#235 = DIRECTION ( 'NONE',  ( -0.0000000000000000000, -0.0000000000000000000, 1.000000000000000000 ) ) ;
#236 = CARTESIAN_POINT ( 'NONE',  ( 0.0000000000000000000, 0.0000000000000000000, -1.487556235426047600 ) ) ;
#237 = AXIS2_PLACEMENT_3D ( 'NONE', #236, #235, #234 ) ;
#238 = DIRECTION ( 'NONE',  ( -0.0000000000000000000, -0.0000000000000000000, 1.000000000000000000 ) ) ;
#239 = AXIS2_PLACEMENT_3D ( 'NONE', #224, #238, #225 ) ;
#240 = CIRCLE ( 'NONE', #239, 12.69999999999999900 ) ;
#241 = CARTESIAN_POINT ( 'NONE',  ( -1.555250069354405900E-015, -12.69999999999989100, -1.487556235426044300 ) ) ;
#242 = CARTESIAN_POINT ( 'NONE',  ( 0.0000000000000000000, 1.431870979206814700E-014, -1.142443764573924900 ) ) ;
#243 = DIRECTION ( 'NONE',  ( -1.224606353822377300E-016, -1.000000000000000000, 0.0000000000000000000 ) ) ;
#244 = DIRECTION ( 'NONE',  ( -1.000000000000000000, 1.224606353822377300E-016, 0.0000000000000000000 ) ) ;
#245 =( NAMED_UNIT ( * ) PLANE_ANGLE_UNIT ( ) SI_UNIT ( $, .RADIAN. ) );
#246 =( LENGTH_UNIT ( ) NAMED_UNIT ( * ) SI_UNIT ( .MILLI., .METRE. ) );
#247 = UNCERTAINTY_MEASURE_WITH_UNIT (LENGTH_MEASURE( 1.000000000000000100E-005 ), #255, 'distance_accuracy_value', 'NONE');
#248 =( GEOMETRIC_REPRESENTATION_CONTEXT ( 3 ) GLOBAL_UNCERTAINTY_ASSIGNED_CONTEXT ( ( #249 ) ) GLOBAL_UNIT_ASSIGNED_CONTEXT ( ( #246, #245, #250 ) ) REPRESENTATION_CONTEXT ( 'NONE', 'WORKASPACE' ) );
#249 = UNCERTAINTY_MEASURE_WITH_UNIT (LENGTH_MEASURE( 1.000000000000000100E-005 ), #246, 'distance_accuracy_value', 'NONE');
#250 =( NAMED_UNIT ( * ) SI_UNIT ( $, .STERADIAN. ) SOLID_ANGLE_UNIT ( ) );
#251 = FILL_AREA_STYLE_COLOUR ( '', #269 ) ;
#252 = CARTESIAN_POINT ( 'NONE',  ( 0.0000000000000000000, 0.0000000000000000000, -234.9924437645739200 ) ) ;
#253 = SPHERICAL_SURFACE ( 'NONE', #264, 233.8499999999999900 ) ;
#254 =( GEOMETRIC_REPRESENTATION_CONTEXT ( 3 ) GLOBAL_UNCERTAINTY_ASSIGNED_CONTEXT ( ( #247 ) ) GLOBAL_UNIT_ASSIGNED_CONTEXT ( ( #255, #261, #260 ) ) REPRESENTATION_CONTEXT ( 'NONE', 'WORKASPACE' ) );
#255 =( LENGTH_UNIT ( ) NAMED_UNIT ( * ) SI_UNIT ( .MILLI., .METRE. ) );
#256 = MECHANICAL_DESIGN_GEOMETRIC_PRESENTATION_REPRESENTATION (  '', ( #266 ), #254 ) ;
#257 = PRESENTATION_STYLE_ASSIGNMENT (( #258 ) ) ;
#258 = SURFACE_STYLE_USAGE ( .BOTH. , #259 ) ;
#259 = SURFACE_SIDE_STYLE ('',( #267 ) ) ;
#260 =( NAMED_UNIT ( * ) SI_UNIT ( $, .STERADIAN. ) SOLID_ANGLE_UNIT ( ) );
#261 =( NAMED_UNIT ( * ) PLANE_ANGLE_UNIT ( ) SI_UNIT ( $, .RADIAN. ) );
#262 = DIRECTION ( 'NONE',  ( 0.0000000000000000000, 1.000000000000000000, 0.0000000000000000000 ) ) ;
#263 = DIRECTION ( 'NONE',  ( -1.000000000000000000, 0.0000000000000000000, 0.0000000000000000000 ) ) ;
#264 = AXIS2_PLACEMENT_3D ( 'NONE', #252, #263, #262 ) ;
#265 = PRESENTATION_LAYER_ASSIGNMENT (  '', '', ( #266 ) ) ;
#266 = STYLED_ITEM ( 'NONE', ( #257 ), #317 ) ;
#267 = SURFACE_STYLE_FILL_AREA ( #268 ) ;
#268 = FILL_AREA_STYLE ('',( #251 ) ) ;
#269 = COLOUR_RGB ( '',0.9568627450980391500, 0.9490196078431372100, 0.9607843137254902200 ) ;
#270 = FACE_OUTER_BOUND ( 'NONE', #318, .T. ) ;
#271 = AXIS2_PLACEMENT_3D ( 'NONE', #272, #274, #273 ) ;
#272 = CARTESIAN_POINT ( 'NONE',  ( 0.0000000000000000000, 0.0000000000000000000, 0.0000000000000000000 ) ) ;
#273 = DIRECTION ( 'NONE',  ( 1.000000000000000000, 0.0000000000000000000, 0.0000000000000000000 ) ) ;
#274 = DIRECTION ( 'NONE',  ( 0.0000000000000000000, 0.0000000000000000000, 1.000000000000000000 ) ) ;
#275 = EDGE_CURVE ( 'NONE', #305, #3, #129, .T. ) ;
#276 = ADVANCED_FACE ( 'NONE', ( #117 ), #83, .T. ) ;
#277 = EDGE_LOOP ( 'NONE', ( #12, #5, #299, #301 ) ) ;
#278 = EDGE_CURVE ( 'NONE', #4, #8, #152, .T. ) ;
#279 = ADVANCED_FACE ( 'NONE', ( #171 ), #157, .T. ) ;
#280 = EDGE_LOOP ( 'NONE', ( #281, #282, #284, #285 ) ) ;
#281 = ORIENTED_EDGE ( 'NONE', *, *, #300, .F. ) ;
#282 = ORIENTED_EDGE ( 'NONE', *, *, #283, .T. ) ;
#283 = EDGE_CURVE ( 'NONE', #7, #3, #150, .T. ) ;
#284 = ORIENTED_EDGE ( 'NONE', *, *, #15, .T. ) ;
#285 = ORIENTED_EDGE ( 'NONE', *, *, #278, .T. ) ;
#286 = ADVANCED_FACE ( 'NONE', ( #145 ), #213, .T. ) ;
#287 = EDGE_LOOP ( 'NONE', ( #288, #289, #313, #314, #315, #316 ) ) ;
#288 = ORIENTED_EDGE ( 'NONE', *, *, #17, .F. ) ;
#289 = ORIENTED_EDGE ( 'NONE', *, *, #312, .T. ) ;
#290 = ORIENTED_EDGE ( 'NONE', *, *, #291, .F. ) ;
#291 = EDGE_CURVE ( 'NONE', #305, #311, #198, .T. ) ;
#292 = ADVANCED_FACE ( 'NONE', ( #211 ), #214, .T. ) ;
#293 = EDGE_LOOP ( 'NONE', ( #294, #295, #14, #11, #19, #10 ) ) ;
#294 = ORIENTED_EDGE ( 'NONE', *, *, #291, .T. ) ;
#295 = ORIENTED_EDGE ( 'NONE', *, *, #296, .T. ) ;
#296 = EDGE_CURVE ( 'NONE', #311, #297, #195, .T. ) ;
#297 = VERTEX_POINT ( 'NONE', #191 ) ;
#298 = EDGE_LOOP ( 'NONE', ( #302, #306, #309, #290 ) ) ;
#299 = ORIENTED_EDGE ( 'NONE', *, *, #300, .T. ) ;
#300 = EDGE_CURVE ( 'NONE', #7, #8, #212, .T. ) ;
#301 = ORIENTED_EDGE ( 'NONE', *, *, #278, .F. ) ;
#302 = ORIENTED_EDGE ( 'NONE', *, *, #303, .F. ) ;
#303 = EDGE_CURVE ( 'NONE', #304, #305, #240, .T. ) ;
#304 = VERTEX_POINT ( 'NONE', #241 ) ;
#305 = VERTEX_POINT ( 'NONE', #233 ) ;
#306 = ORIENTED_EDGE ( 'NONE', *, *, #307, .T. ) ;
#307 = EDGE_CURVE ( 'NONE', #304, #308, #221, .T. ) ;
#308 = VERTEX_POINT ( 'NONE', #242 ) ;
#309 = ORIENTED_EDGE ( 'NONE', *, *, #310, .F. ) ;
#310 = EDGE_CURVE ( 'NONE', #311, #308, #222, .T. ) ;
#311 = VERTEX_POINT ( 'NONE', #231 ) ;
#312 = EDGE_CURVE ( 'NONE', #297, #304, #227, .T. ) ;
#313 = ORIENTED_EDGE ( 'NONE', *, *, #303, .T. ) ;
#314 = ORIENTED_EDGE ( 'NONE', *, *, #275, .T. ) ;
#315 = ORIENTED_EDGE ( 'NONE', *, *, #283, .F. ) ;
#316 = ORIENTED_EDGE ( 'NONE', *, *, #6, .F. ) ;
#317 = ADVANCED_FACE ( 'NONE', ( #270 ), #253, .F. ) ;
#318 = EDGE_LOOP ( 'NONE', ( #319, #320, #321, #322 ) ) ;
#319 = ORIENTED_EDGE ( 'NONE', *, *, #307, .F. ) ;
#320 = ORIENTED_EDGE ( 'NONE', *, *, #312, .F. ) ;
#321 = ORIENTED_EDGE ( 'NONE', *, *, #296, .F. ) ;
#322 = ORIENTED_EDGE ( 'NONE', *, *, #310, .T. ) ;
ENDSEC;
END-ISO-10303-21;
