ISO-10303-21;
HEADER;
FILE_DESCRIPTION (( 'STEP AP203' ),
    '1' );
FILE_NAME ('Web Model 11864_11870.step',
    '2019-01-03T21:49:35',
    ( '' ),
    ( '' ),
    'SwSTEP 2.0',
    'SolidWorks 2016',
    '' );
FILE_SCHEMA (( 'CONFIG_CONTROL_DESIGN' ));
ENDSEC;

DATA;
#1 = ORIENTED_EDGE ( 'NONE', *, *, #163, .F. ) ;
#2 = PERSON_AND_ORGANIZATION ( #36, #123 ) ;
#3 = CARTESIAN_POINT ( 'NONE',  ( 38.10000000000000100, 4.665904304751416100E-015, 2.500000000000000000 ) ) ;
#4 = PERSON_AND_ORGANIZATION ( #36, #123 ) ;
#5 = VERTEX_POINT ( 'NONE', #95 ) ;
#6 = DIRECTION ( 'NONE',  ( 0.0000000000000000000, 0.0000000000000000000, 1.000000000000000000 ) ) ;
#7 = DIRECTION ( 'NONE',  ( 1.000000000000000000, 0.0000000000000000000, 0.0000000000000000000 ) ) ;
#8 = ORIENTED_EDGE ( 'NONE', *, *, #88, .F. ) ;
#9 = CC_DESIGN_PERSON_AND_ORGANIZATION_ASSIGNMENT ( #2, #40, ( #148 ) ) ;
#10 = CARTESIAN_POINT ( 'NONE',  ( 0.0000000000000000000, 0.0000000000000000000, -2.500000000000000000 ) ) ;
#11 = CARTESIAN_POINT ( 'NONE',  ( 0.0000000000000000000, 0.0000000000000000000, 0.0000000000000000000 ) ) ;
#12 = ORIENTED_EDGE ( 'NONE', *, *, #78, .T. ) ;
#13 = VECTOR ( 'NONE', #79, 1000.000000000000000 ) ;
#14 = ADVANCED_BREP_SHAPE_REPRESENTATION ( 'Web Model 11864_11870', ( #124, #67 ), #58 ) ;
#15 = DIRECTION ( 'NONE',  ( -0.0000000000000000000, -0.0000000000000000000, -1.000000000000000000 ) ) ;
#16 = ORIENTED_EDGE ( 'NONE', *, *, #55, .F. ) ;
#17 = CARTESIAN_POINT ( 'NONE',  ( 0.0000000000000000000, 0.0000000000000000000, -2.500000000000000000 ) ) ;
#18 = FACE_OUTER_BOUND ( 'NONE', #85, .T. ) ;
#19 = CARTESIAN_POINT ( 'NONE',  ( 0.0000000000000000000, 0.0000000000000000000, 2.500000000000000000 ) ) ;
#20 = ADVANCED_FACE ( 'NONE', ( #18 ), #42, .F. ) ;
#21 = PERSON_AND_ORGANIZATION ( #36, #123 ) ;
#22 = CIRCLE ( 'NONE', #41, 38.10000000000000100 ) ;
#23 = PERSON_AND_ORGANIZATION ( #36, #123 ) ;
#24 = PERSON_AND_ORGANIZATION_ROLE ( 'creator' ) ;
#25 = PERSON_AND_ORGANIZATION_ROLE ( 'design_owner' ) ;
#26 = PRODUCT ( 'Web Model 11864_11870', 'Web Model 11864_11870', '', ( #162 ) ) ;
#27 = APPLICATION_CONTEXT ( 'configuration controlled 3d designs of mechanical parts and assemblies' ) ;
#28 = VERTEX_POINT ( 'NONE', #96 ) ;
#29 = CALENDAR_DATE ( 2019, 3, 1 ) ;
#30 = CC_DESIGN_SECURITY_CLASSIFICATION ( #148, ( #120 ) ) ;
#31 = PLANE ( 'NONE',  #129 ) ;
#32 = CARTESIAN_POINT ( 'NONE',  ( 38.10000000000000100, 4.665904304751416100E-015, 2.500000000000000000 ) ) ;
#33 = AXIS2_PLACEMENT_3D ( 'NONE', #10, #59, #7 ) ;
#34 = APPROVAL_PERSON_ORGANIZATION ( #4, #167, #64 ) ;
#35 = DATE_TIME_ROLE ( 'classification_date' ) ;
#36 = PERSON ( 'UNSPECIFIED', 'UNSPECIFIED', 'UNSPECIFIED', ('UNSPECIFIED'), ('UNSPECIFIED'), ('UNSPECIFIED') ) ;
#37 = SECURITY_CLASSIFICATION_LEVEL ( 'unclassified' ) ;
#38 = CALENDAR_DATE ( 2019, 3, 1 ) ;
#39 = DATE_TIME_ROLE ( 'creation_date' ) ;
#40 = PERSON_AND_ORGANIZATION_ROLE ( 'classification_officer' ) ;
#41 = AXIS2_PLACEMENT_3D ( 'NONE', #153, #71, #47 ) ;
#42 = PLANE ( 'NONE',  #102 ) ;
#43 = CALENDAR_DATE ( 2019, 3, 1 ) ;
#44 = PRODUCT_RELATED_PRODUCT_CATEGORY ( 'detail', '', ( #26 ) ) ;
#45 = EDGE_LOOP ( 'NONE', ( #8, #16, #12, #118 ) ) ;
#46 = DIRECTION ( 'NONE',  ( 0.0000000000000000000, 0.0000000000000000000, 1.000000000000000000 ) ) ;
#47 = DIRECTION ( 'NONE',  ( 1.000000000000000000, 0.0000000000000000000, 0.0000000000000000000 ) ) ;
#48 = CIRCLE ( 'NONE', #33, 38.10000000000000100 ) ;
#49 = ADVANCED_FACE ( 'NONE', ( #91 ), #31, .T. ) ;
#50 = CALENDAR_DATE ( 2019, 3, 1 ) ;
#51 = VERTEX_POINT ( 'NONE', #32 ) ;
#52 = AXIS2_PLACEMENT_3D ( 'NONE', #17, #46, #83 ) ;
#53 = APPROVAL_STATUS ( 'not_yet_approved' ) ;
#54 = DIRECTION ( 'NONE',  ( 1.000000000000000000, 0.0000000000000000000, -0.0000000000000000000 ) ) ;
#55 = EDGE_CURVE ( 'NONE', #28, #51, #141, .T. ) ;
#56 = APPROVAL_PERSON_ORGANIZATION ( #23, #72, #116 ) ;
#57 = CIRCLE ( 'NONE', #52, 38.10000000000000100 ) ;
#58 =( GEOMETRIC_REPRESENTATION_CONTEXT ( 3 ) GLOBAL_UNCERTAINTY_ASSIGNED_CONTEXT ( ( #142 ) ) GLOBAL_UNIT_ASSIGNED_CONTEXT ( ( #130, #144, #131 ) ) REPRESENTATION_CONTEXT ( 'NONE', 'WORKASPACE' ) );
#59 = DIRECTION ( 'NONE',  ( 0.0000000000000000000, 0.0000000000000000000, 1.000000000000000000 ) ) ;
#60 = PERSON_AND_ORGANIZATION ( #36, #123 ) ;
#61 = ORIENTED_EDGE ( 'NONE', *, *, #88, .T. ) ;
#62 = APPLICATION_CONTEXT ( 'configuration controlled 3d designs of mechanical parts and assemblies' ) ;
#63 = APPROVAL_DATE_TIME ( #169, #167 ) ;
#64 = APPROVAL_ROLE ( '' ) ;
#65 = APPROVAL_ROLE ( '' ) ;
#66 = LINE ( 'NONE', #3, #98 ) ;
#67 = AXIS2_PLACEMENT_3D ( 'NONE', #11, #104, #174 ) ;
#68 = DIRECTION ( 'NONE',  ( 1.000000000000000000, 0.0000000000000000000, 0.0000000000000000000 ) ) ;
#69 = CARTESIAN_POINT ( 'NONE',  ( 0.0000000000000000000, 0.0000000000000000000, 2.500000000000000000 ) ) ;
#70 = LOCAL_TIME ( 16, 49, 35.00000000000000000, #134 ) ;
#71 = DIRECTION ( 'NONE',  ( 0.0000000000000000000, 0.0000000000000000000, 1.000000000000000000 ) ) ;
#72 = APPROVAL ( #53, 'UNSPECIFIED' ) ;
#73 = PERSON_AND_ORGANIZATION ( #36, #123 ) ;
#74 = EDGE_LOOP ( 'NONE', ( #158, #161 ) ) ;
#75 = CC_DESIGN_PERSON_AND_ORGANIZATION_ASSIGNMENT ( #73, #25, ( #26 ) ) ;
#76 = EDGE_LOOP ( 'NONE', ( #108, #61, #121, #166 ) ) ;
#77 = FACE_OUTER_BOUND ( 'NONE', #45, .T. ) ;
#78 = EDGE_CURVE ( 'NONE', #28, #5, #133, .T. ) ;
#79 = DIRECTION ( 'NONE',  ( -0.0000000000000000000, -0.0000000000000000000, -1.000000000000000000 ) ) ;
#80 = DATE_AND_TIME ( #50, #84 ) ;
#81 = FACE_OUTER_BOUND ( 'NONE', #76, .T. ) ;
#82 = PRODUCT_DEFINITION ( 'UNKNOWN', '', #120, #145 ) ;
#83 = DIRECTION ( 'NONE',  ( 1.000000000000000000, 0.0000000000000000000, 0.0000000000000000000 ) ) ;
#84 = LOCAL_TIME ( 16, 49, 35.00000000000000000, #122 ) ;
#85 = EDGE_LOOP ( 'NONE', ( #103, #1 ) ) ;
#86 = AXIS2_PLACEMENT_3D ( 'NONE', #19, #100, #112 ) ;
#87 = CLOSED_SHELL ( 'NONE', ( #171, #115, #49, #20 ) ) ;
#88 = EDGE_CURVE ( 'NONE', #51, #113, #66, .T. ) ;
#89 = COORDINATED_UNIVERSAL_TIME_OFFSET ( 5, 0, .BEHIND. ) ;
#90 = APPLICATION_PROTOCOL_DEFINITION ( 'international standard', 'config_control_design', 1994, #27 ) ;
#91 = FACE_OUTER_BOUND ( 'NONE', #74, .T. ) ;
#92 = CC_DESIGN_APPROVAL ( #167, ( #82 ) ) ;
#93 = AXIS2_PLACEMENT_3D ( 'NONE', #125, #15, #154 ) ;
#94 = CYLINDRICAL_SURFACE ( 'NONE', #93, 38.10000000000000100 ) ;
#95 = CARTESIAN_POINT ( 'NONE',  ( -38.10000000000000100, 0.0000000000000000000, -2.500000000000000000 ) ) ;
#96 = CARTESIAN_POINT ( 'NONE',  ( -38.10000000000000100, 0.0000000000000000000, 2.500000000000000000 ) ) ;
#97 = DIRECTION ( 'NONE',  ( 0.0000000000000000000, 0.0000000000000000000, 1.000000000000000000 ) ) ;
#98 = VECTOR ( 'NONE', #99, 1000.000000000000000 ) ;
#99 = DIRECTION ( 'NONE',  ( -0.0000000000000000000, -0.0000000000000000000, -1.000000000000000000 ) ) ;
#100 = DIRECTION ( 'NONE',  ( -0.0000000000000000000, -0.0000000000000000000, -1.000000000000000000 ) ) ;
#101 = COORDINATED_UNIVERSAL_TIME_OFFSET ( 5, 0, .BEHIND. ) ;
#102 = AXIS2_PLACEMENT_3D ( 'NONE', #139, #6, #54 ) ;
#103 = ORIENTED_EDGE ( 'NONE', *, *, #106, .F. ) ;
#104 = DIRECTION ( 'NONE',  ( 0.0000000000000000000, 0.0000000000000000000, 1.000000000000000000 ) ) ;
#105 = APPROVAL_DATE_TIME ( #117, #114 ) ;
#106 = EDGE_CURVE ( 'NONE', #5, #113, #48, .T. ) ;
#107 = LOCAL_TIME ( 16, 49, 35.00000000000000000, #101 ) ;
#108 = ORIENTED_EDGE ( 'NONE', *, *, #151, .F. ) ;
#109 = CARTESIAN_POINT ( 'NONE',  ( 38.10000000000000100, 4.665904304751416100E-015, -2.500000000000000000 ) ) ;
#110 = DIRECTION ( 'NONE',  ( 1.000000000000000000, 0.0000000000000000000, -0.0000000000000000000 ) ) ;
#111 = PRODUCT_DEFINITION_SHAPE ( 'NONE', 'NONE',  #82 ) ;
#112 = DIRECTION ( 'NONE',  ( -1.000000000000000000, 0.0000000000000000000, 0.0000000000000000000 ) ) ;
#113 = VERTEX_POINT ( 'NONE', #109 ) ;
#114 = APPROVAL ( #135, 'UNSPECIFIED' ) ;
#115 = ADVANCED_FACE ( 'NONE', ( #77 ), #94, .T. ) ;
#116 = APPROVAL_ROLE ( '' ) ;
#117 = DATE_AND_TIME ( #38, #156 ) ;
#118 = ORIENTED_EDGE ( 'NONE', *, *, #106, .T. ) ;
#119 = PERSON_AND_ORGANIZATION_ROLE ( 'design_supplier' ) ;
#120 = PRODUCT_DEFINITION_FORMATION_WITH_SPECIFIED_SOURCE ( 'ANY', '', #26, .NOT_KNOWN. ) ;
#121 = ORIENTED_EDGE ( 'NONE', *, *, #163, .T. ) ;
#122 = COORDINATED_UNIVERSAL_TIME_OFFSET ( 5, 0, .BEHIND. ) ;
#123 = ORGANIZATION ( 'UNSPECIFIED', 'UNSPECIFIED', '' ) ;
#124 = MANIFOLD_SOLID_BREP ( 'Boss-Extrude1', #87 ) ;
#125 = CARTESIAN_POINT ( 'NONE',  ( 0.0000000000000000000, 0.0000000000000000000, 2.500000000000000000 ) ) ;
#126 = COORDINATED_UNIVERSAL_TIME_OFFSET ( 5, 0, .BEHIND. ) ;
#127 = CC_DESIGN_APPROVAL ( #114, ( #148 ) ) ;
#128 = LOCAL_TIME ( 16, 49, 35.00000000000000000, #126 ) ;
#129 = AXIS2_PLACEMENT_3D ( 'NONE', #69, #97, #110 ) ;
#130 =( LENGTH_UNIT ( ) NAMED_UNIT ( * ) SI_UNIT ( .MILLI., .METRE. ) );
#131 =( NAMED_UNIT ( * ) SI_UNIT ( $, .STERADIAN. ) SOLID_ANGLE_UNIT ( ) );
#132 = PERSON_AND_ORGANIZATION ( #36, #123 ) ;
#133 = LINE ( 'NONE', #168, #13 ) ;
#134 = COORDINATED_UNIVERSAL_TIME_OFFSET ( 5, 0, .BEHIND. ) ;
#135 = APPROVAL_STATUS ( 'not_yet_approved' ) ;
#136 = CC_DESIGN_DATE_AND_TIME_ASSIGNMENT ( #175, #39, ( #82 ) ) ;
#137 = DIRECTION ( 'NONE',  ( 0.0000000000000000000, 0.0000000000000000000, 1.000000000000000000 ) ) ;
#138 = AXIS2_PLACEMENT_3D ( 'NONE', #152, #137, #68 ) ;
#139 = CARTESIAN_POINT ( 'NONE',  ( 0.0000000000000000000, 0.0000000000000000000, -2.500000000000000000 ) ) ;
#140 = APPROVAL_DATE_TIME ( #80, #72 ) ;
#141 = CIRCLE ( 'NONE', #138, 38.10000000000000100 ) ;
#142 = UNCERTAINTY_MEASURE_WITH_UNIT (LENGTH_MEASURE( 1.000000000000000100E-005 ), #130, 'distance_accuracy_value', 'NONE');
#143 = CC_DESIGN_APPROVAL ( #72, ( #120 ) ) ;
#144 =( NAMED_UNIT ( * ) PLANE_ANGLE_UNIT ( ) SI_UNIT ( $, .RADIAN. ) );
#145 = DESIGN_CONTEXT ( 'detailed design', #27, 'design' ) ;
#146 = CC_DESIGN_PERSON_AND_ORGANIZATION_ASSIGNMENT ( #132, #24, ( #82 ) ) ;
#147 = PERSON_AND_ORGANIZATION_ROLE ( 'creator' ) ;
#148 = SECURITY_CLASSIFICATION ( '', '', #37 ) ;
#149 = DATE_AND_TIME ( #43, #128 ) ;
#150 = CYLINDRICAL_SURFACE ( 'NONE', #86, 38.10000000000000100 ) ;
#151 = EDGE_CURVE ( 'NONE', #51, #28, #22, .T. ) ;
#152 = CARTESIAN_POINT ( 'NONE',  ( 0.0000000000000000000, 0.0000000000000000000, 2.500000000000000000 ) ) ;
#153 = CARTESIAN_POINT ( 'NONE',  ( 0.0000000000000000000, 0.0000000000000000000, 2.500000000000000000 ) ) ;
#154 = DIRECTION ( 'NONE',  ( -1.000000000000000000, 0.0000000000000000000, 0.0000000000000000000 ) ) ;
#155 = CC_DESIGN_PERSON_AND_ORGANIZATION_ASSIGNMENT ( #21, #147, ( #120 ) ) ;
#156 = LOCAL_TIME ( 16, 49, 35.00000000000000000, #89 ) ;
#157 = CALENDAR_DATE ( 2019, 3, 1 ) ;
#158 = ORIENTED_EDGE ( 'NONE', *, *, #55, .T. ) ;
#159 = SHAPE_DEFINITION_REPRESENTATION ( #111, #14 ) ;
#160 = APPROVAL_PERSON_ORGANIZATION ( #60, #114, #65 ) ;
#161 = ORIENTED_EDGE ( 'NONE', *, *, #151, .T. ) ;
#162 = MECHANICAL_CONTEXT ( 'NONE', #62, 'mechanical' ) ;
#163 = EDGE_CURVE ( 'NONE', #113, #5, #57, .T. ) ;
#164 = APPROVAL_STATUS ( 'not_yet_approved' ) ;
#165 = PERSON_AND_ORGANIZATION ( #36, #123 ) ;
#166 = ORIENTED_EDGE ( 'NONE', *, *, #78, .F. ) ;
#167 = APPROVAL ( #164, 'UNSPECIFIED' ) ;
#168 = CARTESIAN_POINT ( 'NONE',  ( -38.10000000000000100, 0.0000000000000000000, 2.500000000000000000 ) ) ;
#169 = DATE_AND_TIME ( #29, #107 ) ;
#170 = CC_DESIGN_PERSON_AND_ORGANIZATION_ASSIGNMENT ( #165, #119, ( #120 ) ) ;
#171 = ADVANCED_FACE ( 'NONE', ( #81 ), #150, .T. ) ;
#172 = APPLICATION_PROTOCOL_DEFINITION ( 'international standard', 'config_control_design', 1994, #62 ) ;
#173 = CC_DESIGN_DATE_AND_TIME_ASSIGNMENT ( #149, #35, ( #148 ) ) ;
#174 = DIRECTION ( 'NONE',  ( 1.000000000000000000, 0.0000000000000000000, 0.0000000000000000000 ) ) ;
#175 = DATE_AND_TIME ( #157, #70 ) ;
ENDSEC;
END-ISO-10303-21;
