ISO-10303-21;
HEADER;
FILE_DESCRIPTION (( 'STEP AP203' ),
    '1' );
FILE_NAME ('20188-E0W.STEP',
    '2009-09-14T20:49:20',
    ( 'Admin' ),
    ( 'Thorlabs, Inc.' ),
    'SwSTEP 2.0',
    'SolidWorks 2007',
    '' );
FILE_SCHEMA (( 'CONFIG_CONTROL_DESIGN' ));
ENDSEC;

DATA;
#1 = DIRECTION ( 'NONE',  ( 0.0000000000000000000, 3.061515884555943100E-016, -1.000000000000000000 ) ) ;
#2 = CC_DESIGN_PERSON_AND_ORGANIZATION_ASSIGNMENT ( #4, #3, ( #5 ) ) ;
#3 = PERSON_AND_ORGANIZATION_ROLE ( 'classification_officer' ) ;
#4 = PERSON_AND_ORGANIZATION ( #30, #79 ) ;
#5 = SECURITY_CLASSIFICATION ( '', '', #6 ) ;
#6 = SECURITY_CLASSIFICATION_LEVEL ( 'unclassified' ) ;
#7 = CC_DESIGN_PERSON_AND_ORGANIZATION_ASSIGNMENT ( #9, #8, ( #115 ) ) ;
#8 = PERSON_AND_ORGANIZATION_ROLE ( 'design_supplier' ) ;
#9 = PERSON_AND_ORGANIZATION ( #30, #79 ) ;
#10 = CC_DESIGN_PERSON_AND_ORGANIZATION_ASSIGNMENT ( #103, #102, ( #115 ) ) ;
#11 = CARTESIAN_POINT ( 'NONE',  ( 0.0000000000000000000, 8.547752349680199000E-016, -2.000000000000001800 ) ) ;
#12 =( LENGTH_UNIT ( ) NAMED_UNIT ( * ) SI_UNIT ( .MILLI., .METRE. ) );
#13 = CARTESIAN_POINT ( 'NONE',  ( 0.0000000000000000000, 0.0000000000000000000, 0.0000000000000000000 ) ) ;
#14 = DIRECTION ( 'NONE',  ( 0.0000000000000000000, 1.000000000000000000, 2.656035944079321400E-016 ) ) ;
#15 = DIRECTION ( 'NONE',  ( 1.000000000000000000, 0.0000000000000000000, 0.0000000000000000000 ) ) ;
#16 = CARTESIAN_POINT ( 'NONE',  ( 0.0000000000000000000, 2.522444167603333700E-014, -206.9999999999998600 ) ) ;
#17 = CARTESIAN_POINT ( 'NONE',  ( 1.555250069354419100E-015, -12.69999999999999900, -2.000000000000008000 ) ) ;
#18 = DIRECTION ( 'NONE',  ( 0.0000000000000000000, 0.0000000000000000000, 1.000000000000000000 ) ) ;
#19 = DIRECTION ( 'NONE',  ( -1.000000000000000000, 0.0000000000000000000, 0.0000000000000000000 ) ) ;
#20 = CARTESIAN_POINT ( 'NONE',  ( 0.0000000000000000000, 2.522444167603333700E-014, -206.9999999999998600 ) ) ;
#21 = AXIS2_PLACEMENT_3D ( 'NONE', #36, #35, #65 ) ;
#22 = DIRECTION ( 'NONE',  ( 0.0000000000000000000, 1.000000000000000000, 2.656035944079321400E-016 ) ) ;
#23 = DIRECTION ( 'NONE',  ( 1.000000000000000000, 0.0000000000000000000, 0.0000000000000000000 ) ) ;
#24 = AXIS2_PLACEMENT_3D ( 'NONE', #127, #23, #22 ) ;
#25 = SPHERICAL_SURFACE ( 'NONE', #24, 209.0000000000000300 ) ;
#26 = CARTESIAN_POINT ( 'NONE',  ( 0.0000000000000000000, 8.547752349680204900E-016, -2.000000000000004000 ) ) ;
#27 = AXIS2_PLACEMENT_3D ( 'NONE', #26, #129, #128 ) ;
#28 = CIRCLE ( 'NONE', #27, 12.69999999999999900 ) ;
#29 = FACE_OUTER_BOUND ( 'NONE', #171, .T. ) ;
#30 = PERSON ( 'UNSPECIFIED', 'UNSPECIFIED', 'UNSPECIFIED', ('UNSPECIFIED'), ('UNSPECIFIED'), ('UNSPECIFIED') ) ;
#31 = PRODUCT ( '20188-E0W', '20188-E0W', '', ( #32 ) ) ;
#32 = MECHANICAL_CONTEXT ( 'NONE', #34, 'mechanical' ) ;
#33 = APPLICATION_PROTOCOL_DEFINITION ( 'international standard', 'config_control_design', 1994, #34 ) ;
#34 = APPLICATION_CONTEXT ( 'configuration controlled 3d designs of mechanical parts and assemblies' ) ;
#35 = DIRECTION ( 'NONE',  ( 0.0000000000000000000, 3.061515884555943100E-016, -1.000000000000000000 ) ) ;
#36 = CARTESIAN_POINT ( 'NONE',  ( 0.0000000000000000000, 8.547752349680204900E-016, -2.000000000000004000 ) ) ;
#37 = CC_DESIGN_APPROVAL ( #45, ( #48 ) ) ;
#38 = APPROVAL_DATE_TIME ( #39, #45 ) ;
#39 = DATE_AND_TIME ( #40, #41 ) ;
#40 = CALENDAR_DATE ( 2009, 14, 9 ) ;
#41 = LOCAL_TIME ( 16, 49, 20.00000000000000000, #42 ) ;
#42 = COORDINATED_UNIVERSAL_TIME_OFFSET ( 5, 0, .BEHIND. ) ;
#43 = APPROVAL_PERSON_ORGANIZATION ( #47, #45, #44 ) ;
#44 = APPROVAL_ROLE ( '' ) ;
#45 = APPROVAL ( #46, 'UNSPECIFIED' ) ;
#46 = APPROVAL_STATUS ( 'not_yet_approved' ) ;
#47 = PERSON_AND_ORGANIZATION ( #30, #79 ) ;
#48 = PRODUCT_DEFINITION ( 'UNKNOWN', '', #115, #49 ) ;
#49 = DESIGN_CONTEXT ( 'detailed design', #51, 'design' ) ;
#50 = APPLICATION_PROTOCOL_DEFINITION ( 'international standard', 'config_control_design', 1994, #51 ) ;
#51 = APPLICATION_CONTEXT ( 'configuration controlled 3d designs of mechanical parts and assemblies' ) ;
#52 = CC_DESIGN_PERSON_AND_ORGANIZATION_ASSIGNMENT ( #78, #77, ( #31 ) ) ;
#53 = FACE_OUTER_BOUND ( 'NONE', #160, .T. ) ;
#54 = DIRECTION ( 'NONE',  ( 0.0000000000000000000, 3.061515884555943100E-016, -1.000000000000000000 ) ) ;
#55 = VECTOR ( 'NONE', #54, 1000.000000000000000 ) ;
#56 = CARTESIAN_POINT ( 'NONE',  ( 0.0000000000000000000, 12.69999999999999600, -1.999999999999996200 ) ) ;
#57 = LINE ( 'NONE', #56, #55 ) ;
#58 = CARTESIAN_POINT ( 'NONE',  ( 0.0000000000000000000, 8.547752349680193100E-016, -2.000000000000000000 ) ) ;
#59 = CYLINDRICAL_SURFACE ( 'NONE', #72, 12.69999999999999600 ) ;
#60 = PLANE ( 'NONE',  #61 ) ;
#61 = AXIS2_PLACEMENT_3D ( 'NONE', #11, #1, #64 ) ;
#62 = FACE_OUTER_BOUND ( 'NONE', #143, .T. ) ;
#63 = CARTESIAN_POINT ( 'NONE',  ( 0.0000000000000000000, 12.69999999999986800, 1.613781903305897100 ) ) ;
#64 = DIRECTION ( 'NONE',  ( 0.0000000000000000000, 1.000000000000000000, 3.061515884555943100E-016 ) ) ;
#65 = DIRECTION ( 'NONE',  ( 0.0000000000000000000, 1.000000000000000000, 3.073328992872296400E-016 ) ) ;
#66 = DIRECTION ( 'NONE',  ( 0.0000000000000000000, 3.061515884555943100E-016, -1.000000000000000000 ) ) ;
#67 = VECTOR ( 'NONE', #66, 1000.000000000000000 ) ;
#68 = CARTESIAN_POINT ( 'NONE',  ( 1.555250069354418700E-015, -12.69999999999999600, -2.000000000000004000 ) ) ;
#69 = LINE ( 'NONE', #68, #67 ) ;
#70 = DIRECTION ( 'NONE',  ( 0.0000000000000000000, 1.000000000000000000, 3.073328992872296900E-016 ) ) ;
#71 = DIRECTION ( 'NONE',  ( 0.0000000000000000000, 3.061515884555943100E-016, -1.000000000000000000 ) ) ;
#72 = AXIS2_PLACEMENT_3D ( 'NONE', #58, #71, #70 ) ;
#73 = ADVANCED_BREP_SHAPE_REPRESENTATION ( '20188-E0W', ( #144, #133 ), #74 ) ;
#74 =( GEOMETRIC_REPRESENTATION_CONTEXT ( 3 ) GLOBAL_UNCERTAINTY_ASSIGNED_CONTEXT ( ( #135 ) ) GLOBAL_UNIT_ASSIGNED_CONTEXT ( ( #12, #137, #136 ) ) REPRESENTATION_CONTEXT ( 'NONE', 'WORKASPACE' ) );
#75 = PRODUCT_DEFINITION_SHAPE ( 'NONE', 'NONE',  #48 ) ;
#76 = PRODUCT_RELATED_PRODUCT_CATEGORY ( 'detail', '', ( #31 ) ) ;
#77 = PERSON_AND_ORGANIZATION_ROLE ( 'design_owner' ) ;
#78 = PERSON_AND_ORGANIZATION ( #30, #79 ) ;
#79 = ORGANIZATION ( 'UNSPECIFIED', 'UNSPECIFIED', '' ) ;
#80 = CC_DESIGN_SECURITY_CLASSIFICATION ( #5, ( #115 ) ) ;
#81 = CC_DESIGN_APPROVAL ( #89, ( #5 ) ) ;
#82 = APPROVAL_DATE_TIME ( #83, #89 ) ;
#83 = DATE_AND_TIME ( #84, #85 ) ;
#84 = CALENDAR_DATE ( 2009, 14, 9 ) ;
#85 = LOCAL_TIME ( 16, 49, 20.00000000000000000, #86 ) ;
#86 = COORDINATED_UNIVERSAL_TIME_OFFSET ( 5, 0, .BEHIND. ) ;
#87 = APPROVAL_PERSON_ORGANIZATION ( #91, #89, #88 ) ;
#88 = APPROVAL_ROLE ( '' ) ;
#89 = APPROVAL ( #90, 'UNSPECIFIED' ) ;
#90 = APPROVAL_STATUS ( 'not_yet_approved' ) ;
#91 = PERSON_AND_ORGANIZATION ( #30, #79 ) ;
#92 = CC_DESIGN_DATE_AND_TIME_ASSIGNMENT ( #94, #93, ( #5 ) ) ;
#93 = DATE_TIME_ROLE ( 'classification_date' ) ;
#94 = DATE_AND_TIME ( #95, #96 ) ;
#95 = CALENDAR_DATE ( 2009, 14, 9 ) ;
#96 = LOCAL_TIME ( 16, 49, 20.00000000000000000, #97 ) ;
#97 = COORDINATED_UNIVERSAL_TIME_OFFSET ( 5, 0, .BEHIND. ) ;
#98 = AXIS2_PLACEMENT_3D ( 'NONE', #20, #19, #18 ) ;
#99 = SPHERICAL_SURFACE ( 'NONE', #100, 209.0000000000000300 ) ;
#100 = AXIS2_PLACEMENT_3D ( 'NONE', #16, #15, #14 ) ;
#101 = CIRCLE ( 'NONE', #21, 12.69999999999999900 ) ;
#102 = PERSON_AND_ORGANIZATION_ROLE ( 'creator' ) ;
#103 = PERSON_AND_ORGANIZATION ( #30, #79 ) ;
#104 = CC_DESIGN_APPROVAL ( #112, ( #115 ) ) ;
#105 = APPROVAL_DATE_TIME ( #106, #112 ) ;
#106 = DATE_AND_TIME ( #107, #108 ) ;
#107 = CALENDAR_DATE ( 2009, 14, 9 ) ;
#108 = LOCAL_TIME ( 16, 49, 20.00000000000000000, #109 ) ;
#109 = COORDINATED_UNIVERSAL_TIME_OFFSET ( 5, 0, .BEHIND. ) ;
#110 = APPROVAL_PERSON_ORGANIZATION ( #114, #112, #111 ) ;
#111 = APPROVAL_ROLE ( '' ) ;
#112 = APPROVAL ( #113, 'UNSPECIFIED' ) ;
#113 = APPROVAL_STATUS ( 'not_yet_approved' ) ;
#114 = PERSON_AND_ORGANIZATION ( #30, #79 ) ;
#115 = PRODUCT_DEFINITION_FORMATION_WITH_SPECIFIED_SOURCE ( 'ANY', '', #31, .NOT_KNOWN. ) ;
#116 = CC_DESIGN_DATE_AND_TIME_ASSIGNMENT ( #118, #117, ( #48 ) ) ;
#117 = DATE_TIME_ROLE ( 'creation_date' ) ;
#118 = DATE_AND_TIME ( #119, #120 ) ;
#119 = CALENDAR_DATE ( 2009, 14, 9 ) ;
#120 = LOCAL_TIME ( 16, 49, 20.00000000000000000, #121 ) ;
#121 = COORDINATED_UNIVERSAL_TIME_OFFSET ( 5, 0, .BEHIND. ) ;
#122 = CC_DESIGN_PERSON_AND_ORGANIZATION_ASSIGNMENT ( #124, #123, ( #48 ) ) ;
#123 = PERSON_AND_ORGANIZATION_ROLE ( 'creator' ) ;
#124 = PERSON_AND_ORGANIZATION ( #30, #79 ) ;
#125 = CIRCLE ( 'NONE', #98, 209.0000000000000300 ) ;
#126 = CARTESIAN_POINT ( 'NONE',  ( 0.0000000000000000000, 12.69999999999999900, -2.000000000000000000 ) ) ;
#127 = CARTESIAN_POINT ( 'NONE',  ( 0.0000000000000000000, 2.522444167603333700E-014, -206.9999999999998600 ) ) ;
#128 = DIRECTION ( 'NONE',  ( 0.0000000000000000000, 1.000000000000000000, 3.073328992872296400E-016 ) ) ;
#129 = DIRECTION ( 'NONE',  ( 0.0000000000000000000, 3.061515884555943100E-016, -1.000000000000000000 ) ) ;
#130 = FACE_OUTER_BOUND ( 'NONE', #154, .T. ) ;
#131 = DIRECTION ( 'NONE',  ( 1.000000000000000000, 0.0000000000000000000, 0.0000000000000000000 ) ) ;
#132 = DIRECTION ( 'NONE',  ( 0.0000000000000000000, 0.0000000000000000000, 1.000000000000000000 ) ) ;
#133 = AXIS2_PLACEMENT_3D ( 'NONE', #13, #132, #131 ) ;
#134 = SHAPE_DEFINITION_REPRESENTATION ( #75, #73 ) ;
#135 = UNCERTAINTY_MEASURE_WITH_UNIT (LENGTH_MEASURE( 1.000000000000000100E-005 ), #12, 'distance_accuracy_value', 'NONE');
#136 =( NAMED_UNIT ( * ) SI_UNIT ( $, .STERADIAN. ) SOLID_ANGLE_UNIT ( ) );
#137 =( NAMED_UNIT ( * ) PLANE_ANGLE_UNIT ( ) SI_UNIT ( $, .RADIAN. ) );
#138 = CARTESIAN_POINT ( 'NONE',  ( 0.0000000000000000000, -2.596410391374203600E-014, 2.000000000000168300 ) ) ;
#139 = CLOSED_SHELL ( 'NONE', ( #168, #181, #156, #174, #146 ) ) ;
#140 = EDGE_CURVE ( 'NONE', #166, #141, #193, .T. ) ;
#141 = VERTEX_POINT ( 'NONE', #191 ) ;
#142 = ORIENTED_EDGE ( 'NONE', *, *, #170, .T. ) ;
#143 = EDGE_LOOP ( 'NONE', ( #164, #142, #165, #167 ) ) ;
#144 = MANIFOLD_SOLID_BREP ( 'NONE', #139 ) ;
#145 = ORIENTED_EDGE ( 'NONE', *, *, #178, .T. ) ;
#146 = ADVANCED_FACE ( 'NONE', ( #195 ), #187, .T. ) ;
#147 = ORIENTED_EDGE ( 'NONE', *, *, #148, .T. ) ;
#148 = EDGE_CURVE ( 'NONE', #141, #166, #196, .T. ) ;
#149 = ORIENTED_EDGE ( 'NONE', *, *, #170, .F. ) ;
#150 = EDGE_LOOP ( 'NONE', ( #149, #147, #145, #151 ) ) ;
#151 = ORIENTED_EDGE ( 'NONE', *, *, #172, .F. ) ;
#152 = ORIENTED_EDGE ( 'NONE', *, *, #140, .F. ) ;
#153 = ORIENTED_EDGE ( 'NONE', *, *, #155, .T. ) ;
#154 = EDGE_LOOP ( 'NONE', ( #157, #169 ) ) ;
#155 = EDGE_CURVE ( 'NONE', #158, #141, #180, .T. ) ;
#156 = ADVANCED_FACE ( 'NONE', ( #130 ), #60, .T. ) ;
#157 = ORIENTED_EDGE ( 'NONE', *, *, #161, .T. ) ;
#158 = VERTEX_POINT ( 'NONE', #138 ) ;
#159 = VERTEX_POINT ( 'NONE', #126 ) ;
#160 = EDGE_LOOP ( 'NONE', ( #173, #153, #152 ) ) ;
#161 = EDGE_CURVE ( 'NONE', #159, #162, #101, .T. ) ;
#162 = VERTEX_POINT ( 'NONE', #17 ) ;
#163 = EDGE_CURVE ( 'NONE', #158, #166, #125, .T. ) ;
#164 = ORIENTED_EDGE ( 'NONE', *, *, #140, .T. ) ;
#165 = ORIENTED_EDGE ( 'NONE', *, *, #161, .F. ) ;
#166 = VERTEX_POINT ( 'NONE', #63 ) ;
#167 = ORIENTED_EDGE ( 'NONE', *, *, #178, .F. ) ;
#168 = ADVANCED_FACE ( 'NONE', ( #62 ), #59, .T. ) ;
#169 = ORIENTED_EDGE ( 'NONE', *, *, #172, .T. ) ;
#170 = EDGE_CURVE ( 'NONE', #141, #162, #69, .T. ) ;
#171 = EDGE_LOOP ( 'NONE', ( #177, #179, #182 ) ) ;
#172 = EDGE_CURVE ( 'NONE', #162, #159, #28, .T. ) ;
#173 = ORIENTED_EDGE ( 'NONE', *, *, #163, .F. ) ;
#174 = ADVANCED_FACE ( 'NONE', ( #29 ), #25, .T. ) ;
#175 = DIRECTION ( 'NONE',  ( -1.224606353822377000E-016, 1.000000000000000000, 0.0000000000000000000 ) ) ;
#176 = CARTESIAN_POINT ( 'NONE',  ( 0.0000000000000000000, 2.522444167603333700E-014, -206.9999999999998600 ) ) ;
#177 = ORIENTED_EDGE ( 'NONE', *, *, #155, .F. ) ;
#178 = EDGE_CURVE ( 'NONE', #166, #159, #57, .T. ) ;
#179 = ORIENTED_EDGE ( 'NONE', *, *, #163, .T. ) ;
#180 = CIRCLE ( 'NONE', #183, 209.0000000000000300 ) ;
#181 = ADVANCED_FACE ( 'NONE', ( #53 ), #99, .T. ) ;
#182 = ORIENTED_EDGE ( 'NONE', *, *, #148, .F. ) ;
#183 = AXIS2_PLACEMENT_3D ( 'NONE', #176, #184, #175 ) ;
#184 = DIRECTION ( 'NONE',  ( 1.000000000000000000, 1.224606353822377300E-016, 3.749151804555343600E-032 ) ) ;
#185 = AXIS2_PLACEMENT_3D ( 'NONE', #188, #192, #194 ) ;
#186 = DIRECTION ( 'NONE',  ( 0.0000000000000000000, 1.000000000000000000, 3.073328992872296900E-016 ) ) ;
#187 = CYLINDRICAL_SURFACE ( 'NONE', #197, 12.69999999999999600 ) ;
#188 = CARTESIAN_POINT ( 'NONE',  ( 0.0000000000000000000, -2.515898350611564300E-016, 1.613781903305879100 ) ) ;
#189 = CARTESIAN_POINT ( 'NONE',  ( 0.0000000000000000000, 8.547752349680193100E-016, -2.000000000000000000 ) ) ;
#190 = DIRECTION ( 'NONE',  ( 0.0000000000000000000, 3.061515884555943100E-016, -1.000000000000000000 ) ) ;
#191 = CARTESIAN_POINT ( 'NONE',  ( 1.555250069354403100E-015, -12.69999999999990700, 1.613781903305893100 ) ) ;
#192 = DIRECTION ( 'NONE',  ( 0.0000000000000000000, 3.061515884555943100E-016, -1.000000000000000000 ) ) ;
#193 = CIRCLE ( 'NONE', #185, 12.69999999999999200 ) ;
#194 = DIRECTION ( 'NONE',  ( 0.0000000000000000000, 1.000000000000000000, 3.073328992872297800E-016 ) ) ;
#195 = FACE_OUTER_BOUND ( 'NONE', #150, .T. ) ;
#196 = CIRCLE ( 'NONE', #199, 12.69999999999999200 ) ;
#197 = AXIS2_PLACEMENT_3D ( 'NONE', #189, #190, #186 ) ;
#198 = CARTESIAN_POINT ( 'NONE',  ( 0.0000000000000000000, -2.515898350611564300E-016, 1.613781903305879100 ) ) ;
#199 = AXIS2_PLACEMENT_3D ( 'NONE', #198, #201, #200 ) ;
#200 = DIRECTION ( 'NONE',  ( 0.0000000000000000000, 1.000000000000000000, 3.073328992872297800E-016 ) ) ;
#201 = DIRECTION ( 'NONE',  ( 0.0000000000000000000, 3.061515884555943100E-016, -1.000000000000000000 ) ) ;
ENDSEC;
END-ISO-10303-21;
