ISO-10303-21;
HEADER;
FILE_DESCRIPTION (( 'STEP AP203' ),
    '1' );
FILE_NAME ('49003_35962.step',
    '2017-07-18T13:28:00',
    ( '' ),
    ( '' ),
    'SwSTEP 2.0',
    'SolidWorks 2016',
    '' );
FILE_SCHEMA (( 'CONFIG_CONTROL_DESIGN' ));
ENDSEC;

DATA;
#1 = ORIENTED_EDGE ( 'NONE', *, *, #233, .T. ) ;
#2 = CC_DESIGN_APPROVAL ( #337, ( #299 ) ) ;
#3 = PERSON_AND_ORGANIZATION ( #276, #74 ) ;
#4 = AXIS2_PLACEMENT_3D ( 'NONE', #292, #102, #144 ) ;
#5 = APPROVAL_DATE_TIME ( #79, #6 ) ;
#6 = APPROVAL ( #88, 'UNSPECIFIED' ) ;
#7 = EDGE_LOOP ( 'NONE', ( #76, #210, #145, #342 ) ) ;
#8 = LOCAL_TIME ( 9, 28, 0.0000000000000000000, #81 ) ;
#9 = CARTESIAN_POINT ( 'NONE',  ( 12.50000000000000000, 8.838834764831830200, -8.838834764832018500 ) ) ;
#10 = APPROVAL_STATUS ( 'not_yet_approved' ) ;
#11 = DATE_TIME_ROLE ( 'classification_date' ) ;
#12 = LINE ( 'NONE', #260, #147 ) ;
#13 = CC_DESIGN_DATE_AND_TIME_ASSIGNMENT ( #70, #354, ( #295 ) ) ;
#14 = APPROVAL_PERSON_ORGANIZATION ( #84, #6, #283 ) ;
#15 = DIRECTION ( 'NONE',  ( -1.000000000000000000, 0.0000000000000000000, 0.0000000000000000000 ) ) ;
#16 = CC_DESIGN_DATE_AND_TIME_ASSIGNMENT ( #155, #11, ( #299 ) ) ;
#17 = COORDINATED_UNIVERSAL_TIME_OFFSET ( 5, 0, .BEHIND. ) ;
#18 = DIRECTION ( 'NONE',  ( 1.000000000000000000, 0.0000000000000000000, 0.0000000000000000000 ) ) ;
#19 = APPLICATION_CONTEXT ( 'configuration controlled 3d designs of mechanical parts and assemblies' ) ;
#20 = APPROVAL_ROLE ( '' ) ;
#21 = AXIS2_PLACEMENT_3D ( 'NONE', #73, #267, #101 ) ;
#22 = APPROVAL_STATUS ( 'not_yet_approved' ) ;
#23 = COORDINATED_UNIVERSAL_TIME_OFFSET ( 5, 0, .BEHIND. ) ;
#24 = LOCAL_TIME ( 9, 28, 0.0000000000000000000, #176 ) ;
#25 = ORIENTED_EDGE ( 'NONE', *, *, #324, .F. ) ;
#26 = CC_DESIGN_APPROVAL ( #6, ( #347 ) ) ;
#27 = APPROVAL_PERSON_ORGANIZATION ( #98, #223, #257 ) ;
#28 = EDGE_LOOP ( 'NONE', ( #319, #45, #94, #333 ) ) ;
#29 = LOCAL_TIME ( 9, 28, 0.0000000000000000000, #107 ) ;
#30 = PRODUCT_DEFINITION_FORMATION_WITH_SPECIFIED_SOURCE ( 'ANY', '', #164, .NOT_KNOWN. ) ;
#31 = LOCAL_TIME ( 9, 28, 0.0000000000000000000, #179 ) ;
#32 = CALENDAR_DATE ( 2017, 18, 7 ) ;
#33 = PERSON_AND_ORGANIZATION ( #190, #117 ) ;
#34 = CC_DESIGN_PERSON_AND_ORGANIZATION_ASSIGNMENT ( #3, #198, ( #299 ) ) ;
#35 = SHAPE_REPRESENTATION ( '47933', ( #38 ), #304 ) ;
#36 = ORIENTED_EDGE ( 'NONE', *, *, #121, .F. ) ;
#37 = SHAPE_REPRESENTATION ( '49003_35962', ( #218, #55, #21 ), #224 ) ;
#38 = AXIS2_PLACEMENT_3D ( 'NONE', #126, #317, #154 ) ;
#39 =( REPRESENTATION_RELATIONSHIP ('NONE','NONE', #37, #35 ) REPRESENTATION_RELATIONSHIP_WITH_TRANSFORMATION ( #336 )SHAPE_REPRESENTATION_RELATIONSHIP( ) );
#40 = CC_DESIGN_PERSON_AND_ORGANIZATION_ASSIGNMENT ( #285, #119, ( #347 ) ) ;
#41 = CARTESIAN_POINT ( 'NONE',  ( 12.50000000000000000, 0.0000000000000000000, 0.0000000000000000000 ) ) ;
#42 = DATE_AND_TIME ( #335, #24 ) ;
#43 = LOCAL_TIME ( 9, 28, 0.0000000000000000000, #116 ) ;
#44 = APPROVAL_PERSON_ORGANIZATION ( #59, #51, #20 ) ;
#45 = ORIENTED_EDGE ( 'NONE', *, *, #358, .F. ) ;
#46 = DIRECTION ( 'NONE',  ( 0.0000000000000000000, 0.0000000000000000000, 1.000000000000000000 ) ) ;
#47 = PERSON_AND_ORGANIZATION ( #190, #117 ) ;
#48 = APPLICATION_CONTEXT ( 'configuration controlled 3d designs of mechanical parts and assemblies' ) ;
#49 = PERSON_AND_ORGANIZATION_ROLE ( 'design_supplier' ) ;
#50 = PERSON_AND_ORGANIZATION_ROLE ( 'creator' ) ;
#51 = APPROVAL ( #180, 'UNSPECIFIED' ) ;
#52 = APPROVAL_DATE_TIME ( #123, #134 ) ;
#53 = CARTESIAN_POINT ( 'NONE',  ( 12.50000000000000000, -9.298916797420284900E-014, -17.67766952966378500 ) ) ;
#54 = VECTOR ( 'NONE', #61, 1000.000000000000000 ) ;
#55 = AXIS2_PLACEMENT_3D ( 'NONE', #207, #46, #240 ) ;
#56 = EDGE_LOOP ( 'NONE', ( #298, #36, #25 ) ) ;
#57 = APPROVAL_PERSON_ORGANIZATION ( #133, #134, #197 ) ;
#58 = CC_DESIGN_PERSON_AND_ORGANIZATION_ASSIGNMENT ( #213, #309, ( #347 ) ) ;
#59 = PERSON_AND_ORGANIZATION ( #190, #117 ) ;
#60 = DIRECTION ( 'NONE',  ( 0.0000000000000000000, 0.7071067811865537900, 0.7071067811865412400 ) ) ;
#61 = DIRECTION ( 'NONE',  ( -1.000000000000000000, -0.0000000000000000000, -0.0000000000000000000 ) ) ;
#62 = APPROVAL_STATUS ( 'not_yet_approved' ) ;
#63 = EDGE_LOOP ( 'NONE', ( #135, #1, #355 ) ) ;
#64 = LINE ( 'NONE', #140, #54 ) ;
#65 = ADVANCED_BREP_SHAPE_REPRESENTATION ( '', ( #258, #38 ), #304 ) ;
#66 = CC_DESIGN_APPROVAL ( #51, ( #30 ) ) ;
#67 = COORDINATED_UNIVERSAL_TIME_OFFSET ( 5, 0, .BEHIND. ) ;
#68 = PERSON_AND_ORGANIZATION ( #190, #117 ) ;
#69 = DIRECTION ( 'NONE',  ( 0.0000000000000000000, -0.7071067811865399100, 0.7071067811865551200 ) ) ;
#70 = DATE_AND_TIME ( #111, #124 ) ;
#71 = ORIENTED_EDGE ( 'NONE', *, *, #141, .F. ) ;
#72 =( LENGTH_UNIT ( ) NAMED_UNIT ( * ) SI_UNIT ( .MILLI., .METRE. ) );
#73 = CARTESIAN_POINT ( 'NONE',  ( 31.83189675124823000, 21.14627980685141400, -38.36184642378816500 ) ) ;
#74 = ORGANIZATION ( 'NAUO-ORG2', 'UNSPECIFIED', 'UNSPECIFIED' ) ;
#75 = MECHANICAL_CONTEXT ( 'NONE', #48, 'mechanical' ) ;
#76 = ORIENTED_EDGE ( 'NONE', *, *, #324, .T. ) ;
#77 = PERSON_AND_ORGANIZATION_ROLE ( 'classification_officer' ) ;
#78 = PRODUCT_DEFINITION_SHAPE ( 'NONE', 'NONE',  #360 ) ;
#79 = DATE_AND_TIME ( #149, #222 ) ;
#80 = SECURITY_CLASSIFICATION ( '', '', #143 ) ;
#81 = COORDINATED_UNIVERSAL_TIME_OFFSET ( 5, 0, .BEHIND. ) ;
#82 = VERTEX_POINT ( 'NONE', #327 ) ;
#83 = CC_DESIGN_PERSON_AND_ORGANIZATION_ASSIGNMENT ( #68, #209, ( #30 ) ) ;
#84 = PERSON_AND_ORGANIZATION ( #190, #117 ) ;
#85 = DIRECTION ( 'NONE',  ( 0.0000000000000000000, -0.7071067811865537900, -0.7071067811865412400 ) ) ;
#86 = LOCAL_TIME ( 9, 28, 0.0000000000000000000, #67 ) ;
#87 = CARTESIAN_POINT ( 'NONE',  ( 0.0000000000000000000, -9.298916797420284900E-014, -17.67766952966378500 ) ) ;
#88 = APPROVAL_STATUS ( 'not_yet_approved' ) ;
#89 = VERTEX_POINT ( 'NONE', #53 ) ;
#90 = UNCERTAINTY_MEASURE_WITH_UNIT (LENGTH_MEASURE( 1.000000000000000100E-005 ), #291, 'distance_accuracy_value', 'NONE');
#91 = DATE_TIME_ROLE ( 'classification_date' ) ;
#92 = VECTOR ( 'NONE', #289, 1000.000000000000100 ) ;
#93 = PERSON_AND_ORGANIZATION ( #190, #117 ) ;
#94 = ORIENTED_EDGE ( 'NONE', *, *, #193, .F. ) ;
#95 = DIRECTION ( 'NONE',  ( 0.0000000000000000000, -5.260261700116272300E-015, -1.000000000000000000 ) ) ;
#96 = CC_DESIGN_PERSON_AND_ORGANIZATION_ASSIGNMENT ( #138, #340, ( #80 ) ) ;
#97 = AXIS2_PLACEMENT_3D ( 'NONE', #350, #177, #18 ) ;
#98 = PERSON_AND_ORGANIZATION ( #250, #167 ) ;
#99 =( NAMED_UNIT ( * ) SI_UNIT ( $, .STERADIAN. ) SOLID_ANGLE_UNIT ( ) );
#100 = SHAPE_DEFINITION_REPRESENTATION ( #183, #35 ) ;
#101 = DIRECTION ( 'NONE',  ( -1.000000000000000000, -2.775557561562889200E-017, -5.551115123125782100E-017 ) ) ;
#102 = DIRECTION ( 'NONE',  ( 0.0000000000000000000, -0.7071067811865551200, -0.7071067811865399100 ) ) ;
#103 = ORIENTED_EDGE ( 'NONE', *, *, #358, .T. ) ;
#104 = SHAPE_REPRESENTATION_RELATIONSHIP ( 'NONE' , 'NONE' ,  #35, #65 ) ;
#105 = APPLICATION_CONTEXT ( 'configuration controlled 3d designs of mechanical parts and assemblies' ) ;
#106 = APPROVAL_STATUS ( 'not_yet_approved' ) ;
#107 = COORDINATED_UNIVERSAL_TIME_OFFSET ( 5, 0, .BEHIND. ) ;
#108 = CC_DESIGN_PERSON_AND_ORGANIZATION_ASSIGNMENT ( #33, #49, ( #30 ) ) ;
#109 = ADVANCED_FACE ( 'NONE', ( #158 ), #351, .F. ) ;
#110 = LOCAL_TIME ( 9, 28, 0.0000000000000000000, #174 ) ;
#111 = CALENDAR_DATE ( 2017, 18, 7 ) ;
#112 = DIRECTION ( 'NONE',  ( 0.0000000000000000000, 0.7071067811865537900, 0.7071067811865412400 ) ) ;
#113 = CC_DESIGN_DATE_AND_TIME_ASSIGNMENT ( #202, #168, ( #80 ) ) ;
#114 = APPROVAL_DATE_TIME ( #42, #171 ) ;
#115 = CARTESIAN_POINT ( 'NONE',  ( 12.50000000000000000, -9.298916797420284900E-014, -17.67766952966378500 ) ) ;
#116 = COORDINATED_UNIVERSAL_TIME_OFFSET ( 5, 0, .BEHIND. ) ;
#117 = ORGANIZATION ( 'UNSPECIFIED', 'UNSPECIFIED', '' ) ;
#118 = LINE ( 'NONE', #115, #296 ) ;
#119 = PERSON_AND_ORGANIZATION_ROLE ( 'creator' ) ;
#120 = SECURITY_CLASSIFICATION ( '', '', #244 ) ;
#121 = EDGE_CURVE ( 'NONE', #199, #132, #234, .T. ) ;
#122 = DIRECTION ( 'NONE',  ( -1.000000000000000000, 0.0000000000000000000, 0.0000000000000000000 ) ) ;
#123 = DATE_AND_TIME ( #195, #271 ) ;
#124 = LOCAL_TIME ( 9, 28, 0.0000000000000000000, #156 ) ;
#125 = PLANE ( 'NONE',  #152 ) ;
#126 = CARTESIAN_POINT ( 'NONE',  ( 0.0000000000000000000, 0.0000000000000000000, 0.0000000000000000000 ) ) ;
#127 =( NAMED_UNIT ( * ) PLANE_ANGLE_UNIT ( ) SI_UNIT ( $, .RADIAN. ) );
#128 = CARTESIAN_POINT ( 'NONE',  ( 12.50000000000000000, -9.298916797420284900E-014, -17.67766952966378500 ) ) ;
#129 = ADVANCED_FACE ( 'NONE', ( #241 ), #182, .F. ) ;
#130 = APPROVAL_STATUS ( 'not_yet_approved' ) ;
#131 = APPLICATION_PROTOCOL_DEFINITION ( 'international standard', 'config_control_design', 1994, #19 ) ;
#132 = VERTEX_POINT ( 'NONE', #148 ) ;
#133 = PERSON_AND_ORGANIZATION ( #190, #117 ) ;
#134 = APPROVAL ( #10, 'UNSPECIFIED' ) ;
#135 = ORIENTED_EDGE ( 'NONE', *, *, #328, .T. ) ;
#136 = PRODUCT_DEFINITION_SHAPE ( 'NONE', 'NONE',  #295 ) ;
#137 = CC_DESIGN_PERSON_AND_ORGANIZATION_ASSIGNMENT ( #256, #77, ( #120 ) ) ;
#138 = PERSON_AND_ORGANIZATION ( #190, #117 ) ;
#139 = APPROVAL_DATE_TIME ( #214, #51 ) ;
#140 = CARTESIAN_POINT ( 'NONE',  ( 12.50000000000000000, 0.0000000000000000000, 0.0000000000000000000 ) ) ;
#141 = EDGE_CURVE ( 'NONE', #82, #255, #64, .T. ) ;
#142 = APPROVAL_DATE_TIME ( #216, #337 ) ;
#143 = SECURITY_CLASSIFICATION_LEVEL ( 'unclassified' ) ;
#144 = DIRECTION ( 'NONE',  ( 0.0000000000000000000, 0.7071067811865399100, -0.7071067811865551200 ) ) ;
#145 = ORIENTED_EDGE ( 'NONE', *, *, #233, .F. ) ;
#146 = SECURITY_CLASSIFICATION_LEVEL ( 'unclassified' ) ;
#147 = VECTOR ( 'NONE', #95, 1000.000000000000000 ) ;
#148 = CARTESIAN_POINT ( 'NONE',  ( 0.0000000000000000000, 8.838834764831830200, -8.838834764832018500 ) ) ;
#149 = CALENDAR_DATE ( 2017, 18, 7 ) ;
#150 = CARTESIAN_POINT ( 'NONE',  ( 0.0000000000000000000, 8.838834764831830200, -8.838834764832018500 ) ) ;
#151 = CC_DESIGN_APPROVAL ( #134, ( #80 ) ) ;
#152 = AXIS2_PLACEMENT_3D ( 'NONE', #41, #153, #349 ) ;
#153 = DIRECTION ( 'NONE',  ( 0.0000000000000000000, 1.000000000000000000, -5.260261700116272300E-015 ) ) ;
#154 = DIRECTION ( 'NONE',  ( 1.000000000000000000, 0.0000000000000000000, 0.0000000000000000000 ) ) ;
#155 = DATE_AND_TIME ( #225, #300 ) ;
#156 = COORDINATED_UNIVERSAL_TIME_OFFSET ( 5, 0, .BEHIND. ) ;
#157 = PERSON_AND_ORGANIZATION_ROLE ( 'creator' ) ;
#158 = FACE_OUTER_BOUND ( 'NONE', #191, .T. ) ;
#159 = PERSON_AND_ORGANIZATION_ROLE ( 'design_owner' ) ;
#160 = DATE_AND_TIME ( #229, #302 ) ;
#161 = CC_DESIGN_DATE_AND_TIME_ASSIGNMENT ( #184, #269, ( #120 ) ) ;
#162 = EDGE_CURVE ( 'NONE', #89, #199, #308, .T. ) ;
#163 = PERSON_AND_ORGANIZATION ( #190, #117 ) ;
#164 = PRODUCT ( '49003_35962', '49003_35962', '', ( #75 ) ) ;
#165 = APPROVAL_DATE_TIME ( #246, #270 ) ;
#166 = CC_DESIGN_SECURITY_CLASSIFICATION ( #80, ( #347 ) ) ;
#167 = ORGANIZATION ( 'NAUO-ORG1', 'UNSPECIFIED', 'UNSPECIFIED' ) ;
#168 = DATE_TIME_ROLE ( 'classification_date' ) ;
#169 = APPROVAL_ROLE ( '' ) ;
#170 = APPROVAL_PERSON_ORGANIZATION ( #249, #270, #211 ) ;
#171 = APPROVAL ( #106, 'UNSPECIFIED' ) ;
#172 = CARTESIAN_POINT ( 'NONE',  ( 12.50000000000000000, 0.0000000000000000000, 0.0000000000000000000 ) ) ;
#173 = DIRECTION ( 'NONE',  ( 0.0000000000000000000, -5.260261700116272300E-015, -1.000000000000000000 ) ) ;
#174 = COORDINATED_UNIVERSAL_TIME_OFFSET ( 5, 0, .BEHIND. ) ;
#175 = CARTESIAN_POINT ( 'NONE',  ( 12.50000000000000000, 8.838834764831830200, -8.838834764832018500 ) ) ;
#176 = COORDINATED_UNIVERSAL_TIME_OFFSET ( 5, 0, .BEHIND. ) ;
#177 = DIRECTION ( 'NONE',  ( 0.0000000000000000000, 0.0000000000000000000, 1.000000000000000000 ) ) ;
#178 = DIRECTION ( 'NONE',  ( 1.000000000000000000, 0.0000000000000000000, 0.0000000000000000000 ) ) ;
#179 = COORDINATED_UNIVERSAL_TIME_OFFSET ( 5, 0, .BEHIND. ) ;
#180 = APPROVAL_STATUS ( 'not_yet_approved' ) ;
#181 = APPLICATION_PROTOCOL_DEFINITION ( 'international standard', 'config_control_design', 1994, #356 ) ;
#182 = PLANE ( 'NONE',  #266 ) ;
#183 = PRODUCT_DEFINITION_SHAPE ( 'NONE', 'NONE',  #252 ) ;
#184 = DATE_AND_TIME ( #203, #338 ) ;
#185 = PRODUCT_RELATED_PRODUCT_CATEGORY ( 'detail', '', ( #220 ) ) ;
#186 = ORIENTED_EDGE ( 'NONE', *, *, #328, .F. ) ;
#187 = VECTOR ( 'NONE', #346, 1000.000000000000000 ) ;
#188 = VECTOR ( 'NONE', #69, 1000.000000000000100 ) ;
#189 = LINE ( 'NONE', #204, #339 ) ;
#190 = PERSON ( 'UNSPECIFIED', 'UNSPECIFIED', 'UNSPECIFIED', ('UNSPECIFIED'), ('UNSPECIFIED'), ('UNSPECIFIED') ) ;
#191 = EDGE_LOOP ( 'NONE', ( #344, #71, #186, #103 ) ) ;
#192 = CC_DESIGN_APPROVAL ( #171, ( #120 ) ) ;
#193 = EDGE_CURVE ( 'NONE', #89, #206, #118, .T. ) ;
#194 = CARTESIAN_POINT ( 'NONE',  ( 0.0000000000000000000, -9.298916797420284900E-014, -17.67766952966378500 ) ) ;
#195 = CALENDAR_DATE ( 2017, 18, 7 ) ;
#196 = DATE_TIME_ROLE ( 'creation_date' ) ;
#197 = APPROVAL_ROLE ( '' ) ;
#198 = PERSON_AND_ORGANIZATION_ROLE ( 'classification_officer' ) ;
#199 = VERTEX_POINT ( 'NONE', #87 ) ;
#200 = VECTOR ( 'NONE', #60, 1000.000000000000100 ) ;
#201 = DIRECTION ( 'NONE',  ( 0.0000000000000000000, 0.0000000000000000000, 1.000000000000000000 ) ) ;
#202 = DATE_AND_TIME ( #279, #86 ) ;
#203 = CALENDAR_DATE ( 2017, 18, 7 ) ;
#204 = CARTESIAN_POINT ( 'NONE',  ( 0.0000000000000000000, 0.0000000000000000000, 0.0000000000000000000 ) ) ;
#205 = CC_DESIGN_SECURITY_CLASSIFICATION ( #259, ( #360 ) ) ;
#206 = VERTEX_POINT ( 'NONE', #9 ) ;
#207 = CARTESIAN_POINT ( 'NONE',  ( 19.33189675124822300, 21.14627980685099800, -38.36184642378839300 ) ) ;
#208 = CONTEXT_DEPENDENT_SHAPE_REPRESENTATION ( #310, #325 ) ;
#209 = PERSON_AND_ORGANIZATION_ROLE ( 'creator' ) ;
#210 = ORIENTED_EDGE ( 'NONE', *, *, #162, .F. ) ;
#211 = APPROVAL_ROLE ( '' ) ;
#212 = CC_DESIGN_SECURITY_CLASSIFICATION ( #120, ( #30 ) ) ;
#213 = PERSON_AND_ORGANIZATION ( #190, #117 ) ;
#214 = DATE_AND_TIME ( #238, #31 ) ;
#215 = ADVANCED_FACE ( 'NONE', ( #219 ), #345, .F. ) ;
#216 = DATE_AND_TIME ( #290, #8 ) ;
#217 = CLOSED_SHELL ( 'NONE', ( #109, #353, #129, #215, #243 ) ) ;
#218 = AXIS2_PLACEMENT_3D ( 'NONE', #236, #352, #178 ) ;
#219 = FACE_OUTER_BOUND ( 'NONE', #63, .T. ) ;
#220 = PRODUCT ( '47933', '47933', '', ( #323 ) ) ;
#221 = DIRECTION ( 'NONE',  ( 0.0000000000000000000, -0.7071067811865412400, 0.7071067811865537900 ) ) ;
#222 = LOCAL_TIME ( 9, 28, 0.0000000000000000000, #297 ) ;
#223 = APPROVAL ( #62, 'UNKNOWN' ) ;
#224 =( GEOMETRIC_REPRESENTATION_CONTEXT ( 3 ) GLOBAL_UNCERTAINTY_ASSIGNED_CONTEXT ( ( #90 ) ) GLOBAL_UNIT_ASSIGNED_CONTEXT ( ( #291, #127, #318 ) ) REPRESENTATION_CONTEXT ( 'NONE', 'WORKASPACE' ) );
#225 = CALENDAR_DATE ( 2017, 18, 7 ) ;
#226 = APPROVAL_PERSON_ORGANIZATION ( #47, #171, #294 ) ;
#227 = SHAPE_DEFINITION_REPRESENTATION ( #136, #37 ) ;
#228 = SECURITY_CLASSIFICATION_LEVEL ( 'unclassified' ) ;
#229 = CALENDAR_DATE ( 2017, 18, 7 ) ;
#230 = DESIGN_CONTEXT ( 'detailed design', #356, 'design' ) ;
#231 = PRODUCT_RELATED_PRODUCT_CATEGORY ( 'detail', '', ( #164 ) ) ;
#232 = PLANE ( 'NONE',  #277 ) ;
#233 = EDGE_CURVE ( 'NONE', #82, #89, #12, .T. ) ;
#234 = LINE ( 'NONE', #194, #200 ) ;
#235 = DIRECTION ( 'NONE',  ( -1.000000000000000000, -0.0000000000000000000, -0.0000000000000000000 ) ) ;
#236 = CARTESIAN_POINT ( 'NONE',  ( 0.0000000000000000000, 0.0000000000000000000, 0.0000000000000000000 ) ) ;
#237 = ITEM_DEFINED_TRANSFORMATION ( 'NONE', 'NONE', #21,  #38 ) ;
#238 = CALENDAR_DATE ( 2017, 18, 7 ) ;
#239 = PERSON_AND_ORGANIZATION ( #190, #117 ) ;
#240 = DIRECTION ( 'NONE',  ( 1.000000000000000000, 0.0000000000000000000, 0.0000000000000000000 ) ) ;
#241 = FACE_OUTER_BOUND ( 'NONE', #28, .T. ) ;
#242 = APPLICATION_PROTOCOL_DEFINITION ( 'international standard', 'config_control_design', 1994, #48 ) ;
#243 = ADVANCED_FACE ( 'NONE', ( #272 ), #232, .T. ) ;
#244 = SECURITY_CLASSIFICATION_LEVEL ( 'unclassified' ) ;
#245 = CC_DESIGN_PERSON_AND_ORGANIZATION_ASSIGNMENT ( #322, #159, ( #220 ) ) ;
#246 = DATE_AND_TIME ( #312, #29 ) ;
#247 = CC_DESIGN_APPROVAL ( #223, ( #259 ) ) ;
#248 = APPROVAL_DATE_TIME ( #314, #223 ) ;
#249 = PERSON_AND_ORGANIZATION ( #190, #117 ) ;
#250 = PERSON ( 'NAUO-PER1', 'UNSPECIFIED', 'UNSPECIFIED', ('UNSPECIFIED'), ('UNSPECIFIED'), ('UNSPECIFIED') ) ;
#251 = VECTOR ( 'NONE', #235, 1000.000000000000000 ) ;
#252 = PRODUCT_DEFINITION ( 'UNKNOWN', '', #347, #230 ) ;
#253 = DATE_AND_TIME ( #329, #43 ) ;
#254 = APPROVAL_DATE_TIME ( #262, #311 ) ;
#255 = VERTEX_POINT ( 'NONE', #334 ) ;
#256 = PERSON_AND_ORGANIZATION ( #190, #117 ) ;
#257 = APPROVAL_ROLE ( '' ) ;
#258 = MANIFOLD_SOLID_BREP ( 'Boss-Extrude1', #217 ) ;
#259 = SECURITY_CLASSIFICATION ( '', '', #228 ) ;
#260 = CARTESIAN_POINT ( 'NONE',  ( 12.50000000000000000, 0.0000000000000000000, 0.0000000000000000000 ) ) ;
#261 = CARTESIAN_POINT ( 'NONE',  ( 12.50000000000000000, 8.838834764831830200, -8.838834764832018500 ) ) ;
#262 = DATE_AND_TIME ( #280, #301 ) ;
#263 = CC_DESIGN_DATE_AND_TIME_ASSIGNMENT ( #253, #91, ( #259 ) ) ;
#264 =( NAMED_UNIT ( * ) PLANE_ANGLE_UNIT ( ) SI_UNIT ( $, .RADIAN. ) );
#265 = LINE ( 'NONE', #175, #251 ) ;
#266 = AXIS2_PLACEMENT_3D ( 'NONE', #305, #221, #85 ) ;
#267 = DIRECTION ( 'NONE',  ( -5.551115123125781500E-017, 1.665334536937735600E-016, 1.000000000000000000 ) ) ;
#268 = PERSON_AND_ORGANIZATION_ROLE ( 'design_owner' ) ;
#269 = DATE_TIME_ROLE ( 'classification_date' ) ;
#270 = APPROVAL ( #22, 'UNSPECIFIED' ) ;
#271 = LOCAL_TIME ( 9, 28, 0.0000000000000000000, #348 ) ;
#272 = FACE_OUTER_BOUND ( 'NONE', #56, .T. ) ;
#273 = UNCERTAINTY_MEASURE_WITH_UNIT (LENGTH_MEASURE( 1.000000000000000100E-005 ), #72, 'distance_accuracy_value', 'NONE');
#274 = COORDINATED_UNIVERSAL_TIME_OFFSET ( 5, 0, .BEHIND. ) ;
#275 = CC_DESIGN_PERSON_AND_ORGANIZATION_ASSIGNMENT ( #239, #268, ( #164 ) ) ;
#276 = PERSON ( 'NAUO-PER2', 'UNSPECIFIED', 'UNSPECIFIED', ('UNSPECIFIED'), ('UNSPECIFIED'), ('UNSPECIFIED') ) ;
#277 = AXIS2_PLACEMENT_3D ( 'NONE', #287, #122, #313 ) ;
#278 = FACE_OUTER_BOUND ( 'NONE', #7, .T. ) ;
#279 = CALENDAR_DATE ( 2017, 18, 7 ) ;
#280 = CALENDAR_DATE ( 2017, 18, 7 ) ;
#281 = CC_DESIGN_PERSON_AND_ORGANIZATION_ASSIGNMENT ( #98, #284, ( #259 ) ) ;
#282 = APPROVAL_PERSON_ORGANIZATION ( #3, #337, #169 ) ;
#283 = APPROVAL_ROLE ( '' ) ;
#284 = PERSON_AND_ORGANIZATION_ROLE ( 'classification_officer' ) ;
#285 = PERSON_AND_ORGANIZATION ( #190, #117 ) ;
#286 = CC_DESIGN_APPROVAL ( #270, ( #252 ) ) ;
#287 = CARTESIAN_POINT ( 'NONE',  ( 0.0000000000000000000, 0.0000000000000000000, 0.0000000000000000000 ) ) ;
#288 = EDGE_CURVE ( 'NONE', #132, #255, #331, .T. ) ;
#289 = DIRECTION ( 'NONE',  ( 0.0000000000000000000, -0.7071067811865399100, 0.7071067811865551200 ) ) ;
#290 = CALENDAR_DATE ( 2017, 18, 7 ) ;
#291 =( LENGTH_UNIT ( ) NAMED_UNIT ( * ) SI_UNIT ( .MILLI., .METRE. ) );
#292 = CARTESIAN_POINT ( 'NONE',  ( 12.50000000000000000, 8.838834764831830200, -8.838834764832018500 ) ) ;
#293 = APPLICATION_PROTOCOL_DEFINITION ( 'international standard', 'config_control_design', 1994, #105 ) ;
#294 = APPROVAL_ROLE ( '' ) ;
#295 = PRODUCT_DEFINITION ( 'UNKNOWN', '', #30, #343 ) ;
#296 = VECTOR ( 'NONE', #112, 1000.000000000000100 ) ;
#297 = COORDINATED_UNIVERSAL_TIME_OFFSET ( 5, 0, .BEHIND. ) ;
#298 = ORIENTED_EDGE ( 'NONE', *, *, #288, .F. ) ;
#299 = SECURITY_CLASSIFICATION ( '', '', #146 ) ;
#300 = LOCAL_TIME ( 9, 28, 0.0000000000000000000, #17 ) ;
#301 = LOCAL_TIME ( 9, 28, 0.0000000000000000000, #307 ) ;
#302 = LOCAL_TIME ( 9, 28, 0.0000000000000000000, #23 ) ;
#303 = CC_DESIGN_PERSON_AND_ORGANIZATION_ASSIGNMENT ( #93, #50, ( #252 ) ) ;
#304 =( GEOMETRIC_REPRESENTATION_CONTEXT ( 3 ) GLOBAL_UNCERTAINTY_ASSIGNED_CONTEXT ( ( #273 ) ) GLOBAL_UNIT_ASSIGNED_CONTEXT ( ( #72, #264, #99 ) ) REPRESENTATION_CONTEXT ( 'NONE', 'WORKASPACE' ) );
#305 = CARTESIAN_POINT ( 'NONE',  ( 12.50000000000000000, -9.298916797420284900E-014, -17.67766952966378500 ) ) ;
#306 = CONTEXT_DEPENDENT_SHAPE_REPRESENTATION ( #39, #78 ) ;
#307 = COORDINATED_UNIVERSAL_TIME_OFFSET ( 5, 0, .BEHIND. ) ;
#308 = LINE ( 'NONE', #128, #187 ) ;
#309 = PERSON_AND_ORGANIZATION_ROLE ( 'design_supplier' ) ;
#310 =( REPRESENTATION_RELATIONSHIP ('NONE','NONE', #37, #35 ) REPRESENTATION_RELATIONSHIP_WITH_TRANSFORMATION ( #237 )SHAPE_REPRESENTATION_RELATIONSHIP( ) );
#311 = APPROVAL ( #130, 'UNSPECIFIED' ) ;
#312 = CALENDAR_DATE ( 2017, 18, 7 ) ;
#313 = DIRECTION ( 'NONE',  ( 0.0000000000000000000, 0.0000000000000000000, 1.000000000000000000 ) ) ;
#314 = DATE_AND_TIME ( #32, #110 ) ;
#315 = CC_DESIGN_SECURITY_CLASSIFICATION ( #299, ( #361 ) ) ;
#316 = APPROVAL_PERSON_ORGANIZATION ( #330, #311, #320 ) ;
#317 = DIRECTION ( 'NONE',  ( 0.0000000000000000000, 0.0000000000000000000, 1.000000000000000000 ) ) ;
#318 =( NAMED_UNIT ( * ) SI_UNIT ( $, .STERADIAN. ) SOLID_ANGLE_UNIT ( ) );
#319 = ORIENTED_EDGE ( 'NONE', *, *, #121, .T. ) ;
#320 = APPROVAL_ROLE ( '' ) ;
#321 = LINE ( 'NONE', #261, #92 ) ;
#322 = PERSON_AND_ORGANIZATION ( #190, #117 ) ;
#323 = MECHANICAL_CONTEXT ( 'NONE', #19, 'mechanical' ) ;
#324 = EDGE_CURVE ( 'NONE', #255, #199, #189, .T. ) ;
#325 = PRODUCT_DEFINITION_SHAPE ( 'NONE', 'NONE',  #361 ) ;
#326 = CC_DESIGN_DATE_AND_TIME_ASSIGNMENT ( #160, #196, ( #252 ) ) ;
#327 = CARTESIAN_POINT ( 'NONE',  ( 12.50000000000000000, 0.0000000000000000000, 0.0000000000000000000 ) ) ;
#328 = EDGE_CURVE ( 'NONE', #206, #82, #321, .T. ) ;
#329 = CALENDAR_DATE ( 2017, 18, 7 ) ;
#330 = PERSON_AND_ORGANIZATION ( #190, #117 ) ;
#331 = LINE ( 'NONE', #150, #188 ) ;
#332 = CC_DESIGN_APPROVAL ( #311, ( #295 ) ) ;
#333 = ORIENTED_EDGE ( 'NONE', *, *, #162, .T. ) ;
#334 = CARTESIAN_POINT ( 'NONE',  ( 0.0000000000000000000, 0.0000000000000000000, 0.0000000000000000000 ) ) ;
#335 = CALENDAR_DATE ( 2017, 18, 7 ) ;
#336 = ITEM_DEFINED_TRANSFORMATION ( 'NONE', 'NONE', #55,  #38 ) ;
#337 = APPROVAL ( #341, 'UNKNOWN' ) ;
#338 = LOCAL_TIME ( 9, 28, 0.0000000000000000000, #274 ) ;
#339 = VECTOR ( 'NONE', #173, 1000.000000000000000 ) ;
#340 = PERSON_AND_ORGANIZATION_ROLE ( 'classification_officer' ) ;
#341 = APPROVAL_STATUS ( 'not_yet_approved' ) ;
#342 = ORIENTED_EDGE ( 'NONE', *, *, #141, .T. ) ;
#343 = DESIGN_CONTEXT ( 'detailed design', #105, 'design' ) ;
#344 = ORIENTED_EDGE ( 'NONE', *, *, #288, .T. ) ;
#345 = PLANE ( 'NONE',  #359 ) ;
#346 = DIRECTION ( 'NONE',  ( -1.000000000000000000, -0.0000000000000000000, -0.0000000000000000000 ) ) ;
#347 = PRODUCT_DEFINITION_FORMATION_WITH_SPECIFIED_SOURCE ( 'ANY', '', #220, .NOT_KNOWN. ) ;
#348 = COORDINATED_UNIVERSAL_TIME_OFFSET ( 5, 0, .BEHIND. ) ;
#349 = DIRECTION ( 'NONE',  ( 0.0000000000000000000, 5.260261700116272300E-015, 1.000000000000000000 ) ) ;
#350 = CARTESIAN_POINT ( 'NONE',  ( 0.0000000000000000000, 0.0000000000000000000, 0.0000000000000000000 ) ) ;
#351 = PLANE ( 'NONE',  #4 ) ;
#352 = DIRECTION ( 'NONE',  ( 0.0000000000000000000, 0.0000000000000000000, 1.000000000000000000 ) ) ;
#353 = ADVANCED_FACE ( 'NONE', ( #278 ), #125, .F. ) ;
#354 = DATE_TIME_ROLE ( 'creation_date' ) ;
#355 = ORIENTED_EDGE ( 'NONE', *, *, #193, .T. ) ;
#356 = APPLICATION_CONTEXT ( 'configuration controlled 3d designs of mechanical parts and assemblies' ) ;
#357 = CC_DESIGN_PERSON_AND_ORGANIZATION_ASSIGNMENT ( #163, #157, ( #295 ) ) ;
#358 = EDGE_CURVE ( 'NONE', #206, #132, #265, .T. ) ;
#359 = AXIS2_PLACEMENT_3D ( 'NONE', #172, #15, #201 ) ;
#360 = NEXT_ASSEMBLY_USAGE_OCCURRENCE ( 'NAUO1', ' ', ' ', #295, #252, $ ) ;
#361 = NEXT_ASSEMBLY_USAGE_OCCURRENCE ( 'NAUO2', ' ', ' ', #295, #252, $ ) ;
ENDSEC;
END-ISO-10303-21;
