ISO-10303-21;
HEADER;
FILE_DESCRIPTION (( 'STEP AP203' ),
    '1' );
FILE_NAME ('Web Model 45572_45572.step',
    '2017-04-10T16:46:36',
    ( '' ),
    ( '' ),
    'SwSTEP 2.0',
    'SolidWorks 2016',
    '' );
FILE_SCHEMA (( 'CONFIG_CONTROL_DESIGN' ));
ENDSEC;

DATA;
#1 = CARTESIAN_POINT ( 'NONE',  ( 25.00000000000000000, 3.061616997868383000E-015, 0.0000000000000000000 ) ) ;
#2 = CIRCLE ( 'NONE', #88, 25.00000000000000000 ) ;
#3 =( LENGTH_UNIT ( ) NAMED_UNIT ( * ) SI_UNIT ( .MILLI., .METRE. ) );
#4 = APPROVAL ( #16, 'UNSPECIFIED' ) ;
#5 = PERSON_AND_ORGANIZATION_ROLE ( 'design_supplier' ) ;
#6 = PERSON_AND_ORGANIZATION ( #57, #159 ) ;
#7 = CARTESIAN_POINT ( 'NONE',  ( -25.00000000000000000, 0.0000000000000000000, 3.000000000000000000 ) ) ;
#8 = EDGE_CURVE ( 'NONE', #104, #164, #26, .T. ) ;
#9 = PERSON_AND_ORGANIZATION ( #57, #159 ) ;
#10 = ORIENTED_EDGE ( 'NONE', *, *, #154, .F. ) ;
#11 = VERTEX_POINT ( 'NONE', #1 ) ;
#12 = CYLINDRICAL_SURFACE ( 'NONE', #132, 25.00000000000000000 ) ;
#13 = PRODUCT_DEFINITION_FORMATION_WITH_SPECIFIED_SOURCE ( 'ANY', '', #92, .NOT_KNOWN. ) ;
#14 = COORDINATED_UNIVERSAL_TIME_OFFSET ( 5, 0, .BEHIND. ) ;
#15 = PERSON_AND_ORGANIZATION_ROLE ( 'design_owner' ) ;
#16 = APPROVAL_STATUS ( 'not_yet_approved' ) ;
#17 = CC_DESIGN_PERSON_AND_ORGANIZATION_ASSIGNMENT ( #121, #15, ( #92 ) ) ;
#18 = PERSON_AND_ORGANIZATION_ROLE ( 'creator' ) ;
#19 = SHAPE_DEFINITION_REPRESENTATION ( #42, #35 ) ;
#20 = PRODUCT_RELATED_PRODUCT_CATEGORY ( 'detail', '', ( #92 ) ) ;
#21 = EDGE_CURVE ( 'NONE', #104, #11, #147, .T. ) ;
#22 = DIRECTION ( 'NONE',  ( 1.000000000000000000, 0.0000000000000000000, 0.0000000000000000000 ) ) ;
#23 = ORIENTED_EDGE ( 'NONE', *, *, #107, .T. ) ;
#24 = DATE_AND_TIME ( #53, #98 ) ;
#25 = FACE_OUTER_BOUND ( 'NONE', #105, .T. ) ;
#26 = CIRCLE ( 'NONE', #136, 25.00000000000000000 ) ;
#27 = PERSON_AND_ORGANIZATION ( #57, #159 ) ;
#28 = PRODUCT_DEFINITION ( 'UNKNOWN', '', #13, #122 ) ;
#29 = PERSON_AND_ORGANIZATION ( #57, #159 ) ;
#30 = CC_DESIGN_PERSON_AND_ORGANIZATION_ASSIGNMENT ( #9, #18, ( #28 ) ) ;
#31 = CARTESIAN_POINT ( 'NONE',  ( 0.0000000000000000000, 0.0000000000000000000, 0.0000000000000000000 ) ) ;
#32 = APPROVAL_STATUS ( 'not_yet_approved' ) ;
#33 = CALENDAR_DATE ( 2017, 10, 4 ) ;
#34 = AXIS2_PLACEMENT_3D ( 'NONE', #127, #89, #87 ) ;
#35 = ADVANCED_BREP_SHAPE_REPRESENTATION ( 'Web Model 45572_45572', ( #52, #166 ), #99 ) ;
#36 = DIRECTION ( 'NONE',  ( -0.0000000000000000000, -0.0000000000000000000, -1.000000000000000000 ) ) ;
#37 = APPROVAL_ROLE ( '' ) ;
#38 = DATE_AND_TIME ( #76, #112 ) ;
#39 = CLOSED_SHELL ( 'NONE', ( #111, #75, #126, #162 ) ) ;
#40 = APPROVAL_DATE_TIME ( #81, #4 ) ;
#41 = DIRECTION ( 'NONE',  ( 0.0000000000000000000, 0.0000000000000000000, 1.000000000000000000 ) ) ;
#42 = PRODUCT_DEFINITION_SHAPE ( 'NONE', 'NONE',  #28 ) ;
#43 = VECTOR ( 'NONE', #36, 1000.000000000000000 ) ;
#44 = PERSON_AND_ORGANIZATION_ROLE ( 'classification_officer' ) ;
#45 = APPROVAL_PERSON_ORGANIZATION ( #86, #4, #37 ) ;
#46 = EDGE_LOOP ( 'NONE', ( #101, #118 ) ) ;
#47 = DIRECTION ( 'NONE',  ( 1.000000000000000000, 0.0000000000000000000, -0.0000000000000000000 ) ) ;
#48 = CARTESIAN_POINT ( 'NONE',  ( 0.0000000000000000000, 0.0000000000000000000, 3.000000000000000000 ) ) ;
#49 = ORIENTED_EDGE ( 'NONE', *, *, #94, .T. ) ;
#50 = APPLICATION_PROTOCOL_DEFINITION ( 'international standard', 'config_control_design', 1994, #97 ) ;
#51 = PLANE ( 'NONE',  #83 ) ;
#52 = MANIFOLD_SOLID_BREP ( 'Extrude1', #39 ) ;
#53 = CALENDAR_DATE ( 2017, 10, 4 ) ;
#54 = CARTESIAN_POINT ( 'NONE',  ( 0.0000000000000000000, 0.0000000000000000000, 3.000000000000000000 ) ) ;
#55 = APPROVAL_ROLE ( '' ) ;
#56 = ORIENTED_EDGE ( 'NONE', *, *, #8, .F. ) ;
#57 = PERSON ( 'UNSPECIFIED', 'UNSPECIFIED', 'UNSPECIFIED', ('UNSPECIFIED'), ('UNSPECIFIED'), ('UNSPECIFIED') ) ;
#58 = CARTESIAN_POINT ( 'NONE',  ( -25.00000000000000000, 0.0000000000000000000, 0.0000000000000000000 ) ) ;
#59 = CC_DESIGN_APPROVAL ( #70, ( #13 ) ) ;
#60 = DATE_AND_TIME ( #102, #135 ) ;
#61 = CC_DESIGN_SECURITY_CLASSIFICATION ( #110, ( #13 ) ) ;
#62 = DIRECTION ( 'NONE',  ( 1.000000000000000000, 0.0000000000000000000, 0.0000000000000000000 ) ) ;
#63 = PERSON_AND_ORGANIZATION ( #57, #159 ) ;
#64 = DIRECTION ( 'NONE',  ( 0.0000000000000000000, 0.0000000000000000000, 1.000000000000000000 ) ) ;
#65 = UNCERTAINTY_MEASURE_WITH_UNIT (LENGTH_MEASURE( 1.000000000000000100E-005 ), #3, 'distance_accuracy_value', 'NONE');
#66 = DIRECTION ( 'NONE',  ( -0.0000000000000000000, -0.0000000000000000000, -1.000000000000000000 ) ) ;
#67 = FACE_OUTER_BOUND ( 'NONE', #46, .T. ) ;
#68 = CARTESIAN_POINT ( 'NONE',  ( 25.00000000000000000, 3.061616997868383000E-015, 3.000000000000000000 ) ) ;
#69 = LOCAL_TIME ( 12, 46, 36.00000000000000000, #108 ) ;
#70 = APPROVAL ( #32, 'UNSPECIFIED' ) ;
#71 = ORIENTED_EDGE ( 'NONE', *, *, #21, .F. ) ;
#72 = SECURITY_CLASSIFICATION_LEVEL ( 'unclassified' ) ;
#73 = CC_DESIGN_DATE_AND_TIME_ASSIGNMENT ( #60, #134, ( #110 ) ) ;
#74 = CC_DESIGN_PERSON_AND_ORGANIZATION_ASSIGNMENT ( #106, #149, ( #13 ) ) ;
#75 = ADVANCED_FACE ( 'NONE', ( #153 ), #12, .T. ) ;
#76 = CALENDAR_DATE ( 2017, 10, 4 ) ;
#77 = AXIS2_PLACEMENT_3D ( 'NONE', #80, #160, #22 ) ;
#78 = VECTOR ( 'NONE', #79, 1000.000000000000000 ) ;
#79 = DIRECTION ( 'NONE',  ( -0.0000000000000000000, -0.0000000000000000000, -1.000000000000000000 ) ) ;
#80 = CARTESIAN_POINT ( 'NONE',  ( 0.0000000000000000000, 0.0000000000000000000, 3.000000000000000000 ) ) ;
#81 = DATE_AND_TIME ( #116, #155 ) ;
#82 = VERTEX_POINT ( 'NONE', #58 ) ;
#83 = AXIS2_PLACEMENT_3D ( 'NONE', #31, #123, #151 ) ;
#84 = CYLINDRICAL_SURFACE ( 'NONE', #124, 25.00000000000000000 ) ;
#85 = CIRCLE ( 'NONE', #34, 25.00000000000000000 ) ;
#86 = PERSON_AND_ORGANIZATION ( #57, #159 ) ;
#87 = DIRECTION ( 'NONE',  ( 1.000000000000000000, 0.0000000000000000000, 0.0000000000000000000 ) ) ;
#88 = AXIS2_PLACEMENT_3D ( 'NONE', #173, #41, #144 ) ;
#89 = DIRECTION ( 'NONE',  ( 0.0000000000000000000, 0.0000000000000000000, 1.000000000000000000 ) ) ;
#90 = CC_DESIGN_APPROVAL ( #4, ( #28 ) ) ;
#91 = DATE_TIME_ROLE ( 'creation_date' ) ;
#92 = PRODUCT ( 'Web Model 45572_45572', 'Web Model 45572_45572', '', ( #146 ) ) ;
#93 = ORIENTED_EDGE ( 'NONE', *, *, #107, .F. ) ;
#94 = EDGE_CURVE ( 'NONE', #11, #82, #85, .T. ) ;
#95 = DIRECTION ( 'NONE',  ( 0.0000000000000000000, 0.0000000000000000000, 1.000000000000000000 ) ) ;
#96 = EDGE_LOOP ( 'NONE', ( #10, #148 ) ) ;
#97 = APPLICATION_CONTEXT ( 'configuration controlled 3d designs of mechanical parts and assemblies' ) ;
#98 = LOCAL_TIME ( 12, 46, 36.00000000000000000, #129 ) ;
#99 =( GEOMETRIC_REPRESENTATION_CONTEXT ( 3 ) GLOBAL_UNCERTAINTY_ASSIGNED_CONTEXT ( ( #65 ) ) GLOBAL_UNIT_ASSIGNED_CONTEXT ( ( #3, #109, #142 ) ) REPRESENTATION_CONTEXT ( 'NONE', 'WORKASPACE' ) );
#100 = FACE_OUTER_BOUND ( 'NONE', #96, .T. ) ;
#101 = ORIENTED_EDGE ( 'NONE', *, *, #115, .T. ) ;
#102 = CALENDAR_DATE ( 2017, 10, 4 ) ;
#103 = LINE ( 'NONE', #152, #78 ) ;
#104 = VERTEX_POINT ( 'NONE', #68 ) ;
#105 = EDGE_LOOP ( 'NONE', ( #56, #137, #49, #93 ) ) ;
#106 = PERSON_AND_ORGANIZATION ( #57, #159 ) ;
#107 = EDGE_CURVE ( 'NONE', #164, #82, #103, .T. ) ;
#108 = COORDINATED_UNIVERSAL_TIME_OFFSET ( 5, 0, .BEHIND. ) ;
#109 =( NAMED_UNIT ( * ) PLANE_ANGLE_UNIT ( ) SI_UNIT ( $, .RADIAN. ) );
#110 = SECURITY_CLASSIFICATION ( '', '', #72 ) ;
#111 = ADVANCED_FACE ( 'NONE', ( #25 ), #84, .T. ) ;
#112 = LOCAL_TIME ( 12, 46, 36.00000000000000000, #150 ) ;
#113 = APPROVAL_ROLE ( '' ) ;
#114 = PLANE ( 'NONE',  #145 ) ;
#115 = EDGE_CURVE ( 'NONE', #164, #104, #158, .T. ) ;
#116 = CALENDAR_DATE ( 2017, 10, 4 ) ;
#117 = DIRECTION ( 'NONE',  ( -1.000000000000000000, 0.0000000000000000000, 0.0000000000000000000 ) ) ;
#118 = ORIENTED_EDGE ( 'NONE', *, *, #8, .T. ) ;
#119 = CARTESIAN_POINT ( 'NONE',  ( 25.00000000000000000, 3.061616997868383000E-015, 3.000000000000000000 ) ) ;
#120 = CARTESIAN_POINT ( 'NONE',  ( 0.0000000000000000000, 0.0000000000000000000, 3.000000000000000000 ) ) ;
#121 = PERSON_AND_ORGANIZATION ( #57, #159 ) ;
#122 = DESIGN_CONTEXT ( 'detailed design', #169, 'design' ) ;
#123 = DIRECTION ( 'NONE',  ( 0.0000000000000000000, 0.0000000000000000000, 1.000000000000000000 ) ) ;
#124 = AXIS2_PLACEMENT_3D ( 'NONE', #156, #140, #117 ) ;
#125 = EDGE_LOOP ( 'NONE', ( #71, #161, #23, #167 ) ) ;
#126 = ADVANCED_FACE ( 'NONE', ( #67 ), #114, .T. ) ;
#127 = CARTESIAN_POINT ( 'NONE',  ( 0.0000000000000000000, 0.0000000000000000000, 0.0000000000000000000 ) ) ;
#128 = DIRECTION ( 'NONE',  ( -1.000000000000000000, 0.0000000000000000000, 0.0000000000000000000 ) ) ;
#129 = COORDINATED_UNIVERSAL_TIME_OFFSET ( 5, 0, .BEHIND. ) ;
#130 = CARTESIAN_POINT ( 'NONE',  ( 0.0000000000000000000, 0.0000000000000000000, 0.0000000000000000000 ) ) ;
#131 = DIRECTION ( 'NONE',  ( 1.000000000000000000, 0.0000000000000000000, 0.0000000000000000000 ) ) ;
#132 = AXIS2_PLACEMENT_3D ( 'NONE', #48, #66, #128 ) ;
#133 = APPROVAL_STATUS ( 'not_yet_approved' ) ;
#134 = DATE_TIME_ROLE ( 'classification_date' ) ;
#135 = LOCAL_TIME ( 12, 46, 36.00000000000000000, #171 ) ;
#136 = AXIS2_PLACEMENT_3D ( 'NONE', #120, #64, #62 ) ;
#137 = ORIENTED_EDGE ( 'NONE', *, *, #21, .T. ) ;
#138 = CC_DESIGN_APPROVAL ( #172, ( #110 ) ) ;
#139 = APPROVAL_DATE_TIME ( #175, #70 ) ;
#140 = DIRECTION ( 'NONE',  ( -0.0000000000000000000, -0.0000000000000000000, -1.000000000000000000 ) ) ;
#141 = CC_DESIGN_PERSON_AND_ORGANIZATION_ASSIGNMENT ( #63, #5, ( #13 ) ) ;
#142 =( NAMED_UNIT ( * ) SI_UNIT ( $, .STERADIAN. ) SOLID_ANGLE_UNIT ( ) );
#143 = APPROVAL_PERSON_ORGANIZATION ( #6, #70, #55 ) ;
#144 = DIRECTION ( 'NONE',  ( 1.000000000000000000, 0.0000000000000000000, 0.0000000000000000000 ) ) ;
#145 = AXIS2_PLACEMENT_3D ( 'NONE', #54, #157, #47 ) ;
#146 = MECHANICAL_CONTEXT ( 'NONE', #97, 'mechanical' ) ;
#147 = LINE ( 'NONE', #119, #43 ) ;
#148 = ORIENTED_EDGE ( 'NONE', *, *, #94, .F. ) ;
#149 = PERSON_AND_ORGANIZATION_ROLE ( 'creator' ) ;
#150 = COORDINATED_UNIVERSAL_TIME_OFFSET ( 5, 0, .BEHIND. ) ;
#151 = DIRECTION ( 'NONE',  ( 1.000000000000000000, 0.0000000000000000000, -0.0000000000000000000 ) ) ;
#152 = CARTESIAN_POINT ( 'NONE',  ( -25.00000000000000000, 0.0000000000000000000, 3.000000000000000000 ) ) ;
#153 = FACE_OUTER_BOUND ( 'NONE', #125, .T. ) ;
#154 = EDGE_CURVE ( 'NONE', #82, #11, #2, .T. ) ;
#155 = LOCAL_TIME ( 12, 46, 36.00000000000000000, #14 ) ;
#156 = CARTESIAN_POINT ( 'NONE',  ( 0.0000000000000000000, 0.0000000000000000000, 3.000000000000000000 ) ) ;
#157 = DIRECTION ( 'NONE',  ( 0.0000000000000000000, 0.0000000000000000000, 1.000000000000000000 ) ) ;
#158 = CIRCLE ( 'NONE', #77, 25.00000000000000000 ) ;
#159 = ORGANIZATION ( 'UNSPECIFIED', 'UNSPECIFIED', '' ) ;
#160 = DIRECTION ( 'NONE',  ( 0.0000000000000000000, 0.0000000000000000000, 1.000000000000000000 ) ) ;
#161 = ORIENTED_EDGE ( 'NONE', *, *, #115, .F. ) ;
#162 = ADVANCED_FACE ( 'NONE', ( #100 ), #51, .F. ) ;
#163 = CC_DESIGN_PERSON_AND_ORGANIZATION_ASSIGNMENT ( #29, #44, ( #110 ) ) ;
#164 = VERTEX_POINT ( 'NONE', #7 ) ;
#165 = APPROVAL_DATE_TIME ( #24, #172 ) ;
#166 = AXIS2_PLACEMENT_3D ( 'NONE', #130, #95, #131 ) ;
#167 = ORIENTED_EDGE ( 'NONE', *, *, #154, .T. ) ;
#168 = APPROVAL_PERSON_ORGANIZATION ( #27, #172, #113 ) ;
#169 = APPLICATION_CONTEXT ( 'configuration controlled 3d designs of mechanical parts and assemblies' ) ;
#170 = CC_DESIGN_DATE_AND_TIME_ASSIGNMENT ( #38, #91, ( #28 ) ) ;
#171 = COORDINATED_UNIVERSAL_TIME_OFFSET ( 5, 0, .BEHIND. ) ;
#172 = APPROVAL ( #133, 'UNSPECIFIED' ) ;
#173 = CARTESIAN_POINT ( 'NONE',  ( 0.0000000000000000000, 0.0000000000000000000, 0.0000000000000000000 ) ) ;
#174 = APPLICATION_PROTOCOL_DEFINITION ( 'international standard', 'config_control_design', 1994, #169 ) ;
#175 = DATE_AND_TIME ( #33, #69 ) ;
ENDSEC;
END-ISO-10303-21;
