ISO-10303-21;
HEADER;
FILE_DESCRIPTION (( 'STEP AP203' ),
    '1' );
FILE_NAME ('Web Model 66200.STEP',
    '2017-01-31T19:36:58',
    ( '' ),
    ( '' ),
    'SwSTEP 2.0',
    'SolidWorks 2016',
    '' );
FILE_SCHEMA (( 'CONFIG_CONTROL_DESIGN' ));
ENDSEC;

DATA;
#1 = DIRECTION ( 'NONE',  ( 1.000000000000000000, 0.0000000000000000000, 0.0000000000000000000 ) ) ;
#2 = SHAPE_DEFINITION_REPRESENTATION ( #81, #25 ) ;
#3 = CARTESIAN_POINT ( 'NONE',  ( 0.0000000000000000000, 0.0000000000000000000, 0.0000000000000000000 ) ) ;
#4 = SECURITY_CLASSIFICATION ( '', '', #19 ) ;
#5 = VERTEX_POINT ( 'NONE', #101 ) ;
#6 = PERSON_AND_ORGANIZATION_ROLE ( 'creator' ) ;
#7 = AXIS2_PLACEMENT_3D ( 'NONE', #42, #55, #88 ) ;
#8 = ORIENTED_EDGE ( 'NONE', *, *, #97, .F. ) ;
#9 = APPROVAL_STATUS ( 'not_yet_approved' ) ;
#10 = PERSON_AND_ORGANIZATION ( #17, #103 ) ;
#11 = VECTOR ( 'NONE', #144, 1000.000000000000000 ) ;
#12 = AXIS2_PLACEMENT_3D ( 'NONE', #114, #21, #107 ) ;
#13 = CARTESIAN_POINT ( 'NONE',  ( -6.250000000000000000, 0.0000000000000000000, 2.000000000000000000 ) ) ;
#14 = DIRECTION ( 'NONE',  ( -0.0000000000000000000, -0.0000000000000000000, -1.000000000000000000 ) ) ;
#15 = VERTEX_POINT ( 'NONE', #155 ) ;
#16 = DIRECTION ( 'NONE',  ( 1.000000000000000000, 0.0000000000000000000, 0.0000000000000000000 ) ) ;
#17 = PERSON ( 'UNSPECIFIED', 'UNSPECIFIED', 'UNSPECIFIED', ('UNSPECIFIED'), ('UNSPECIFIED'), ('UNSPECIFIED') ) ;
#18 = DATE_AND_TIME ( #56, #125 ) ;
#19 = SECURITY_CLASSIFICATION_LEVEL ( 'unclassified' ) ;
#20 = FACE_OUTER_BOUND ( 'NONE', #109, .T. ) ;
#21 = DIRECTION ( 'NONE',  ( 0.0000000000000000000, 0.0000000000000000000, 1.000000000000000000 ) ) ;
#22 = ORIENTED_EDGE ( 'NONE', *, *, #110, .T. ) ;
#23 = PERSON_AND_ORGANIZATION ( #17, #103 ) ;
#24 = MANIFOLD_SOLID_BREP ( 'Extrude1', #38 ) ;
#25 = ADVANCED_BREP_SHAPE_REPRESENTATION ( 'Web Model 66200', ( #24, #12 ), #51 ) ;
#26 = ORIENTED_EDGE ( 'NONE', *, *, #70, .T. ) ;
#27 = DIRECTION ( 'NONE',  ( -0.0000000000000000000, -0.0000000000000000000, -1.000000000000000000 ) ) ;
#28 = PLANE ( 'NONE',  #129 ) ;
#29 = DIRECTION ( 'NONE',  ( 1.000000000000000000, 0.0000000000000000000, -0.0000000000000000000 ) ) ;
#30 = CC_DESIGN_DATE_AND_TIME_ASSIGNMENT ( #162, #148, ( #4 ) ) ;
#31 = EDGE_LOOP ( 'NONE', ( #71, #150 ) ) ;
#32 = LOCAL_TIME ( 14, 36, 58.00000000000000000, #98 ) ;
#33 = CYLINDRICAL_SURFACE ( 'NONE', #126, 6.250000000000000000 ) ;
#34 =( NAMED_UNIT ( * ) PLANE_ANGLE_UNIT ( ) SI_UNIT ( $, .RADIAN. ) );
#35 = DATE_TIME_ROLE ( 'creation_date' ) ;
#36 = FACE_OUTER_BOUND ( 'NONE', #174, .T. ) ;
#37 = ADVANCED_FACE ( 'NONE', ( #36 ), #33, .T. ) ;
#38 = CLOSED_SHELL ( 'NONE', ( #37, #96, #82, #95 ) ) ;
#39 = APPROVAL ( #62, 'UNSPECIFIED' ) ;
#40 = APPROVAL_PERSON_ORGANIZATION ( #116, #39, #91 ) ;
#41 = CARTESIAN_POINT ( 'NONE',  ( 0.0000000000000000000, 0.0000000000000000000, 2.000000000000000000 ) ) ;
#42 = CARTESIAN_POINT ( 'NONE',  ( 0.0000000000000000000, 0.0000000000000000000, 2.000000000000000000 ) ) ;
#43 = AXIS2_PLACEMENT_3D ( 'NONE', #41, #27, #168 ) ;
#44 = FACE_OUTER_BOUND ( 'NONE', #31, .T. ) ;
#45 = LOCAL_TIME ( 14, 36, 58.00000000000000000, #163 ) ;
#46 = CARTESIAN_POINT ( 'NONE',  ( 6.250000000000000000, 7.654042494670957600E-016, 0.0000000000000000000 ) ) ;
#47 =( NAMED_UNIT ( * ) SI_UNIT ( $, .STERADIAN. ) SOLID_ANGLE_UNIT ( ) );
#48 = CALENDAR_DATE ( 2017, 31, 1 ) ;
#49 = MECHANICAL_CONTEXT ( 'NONE', #77, 'mechanical' ) ;
#50 = PERSON_AND_ORGANIZATION ( #17, #103 ) ;
#51 =( GEOMETRIC_REPRESENTATION_CONTEXT ( 3 ) GLOBAL_UNCERTAINTY_ASSIGNED_CONTEXT ( ( #100 ) ) GLOBAL_UNIT_ASSIGNED_CONTEXT ( ( #73, #34, #47 ) ) REPRESENTATION_CONTEXT ( 'NONE', 'WORKASPACE' ) );
#52 = CIRCLE ( 'NONE', #53, 6.250000000000000000 ) ;
#53 = AXIS2_PLACEMENT_3D ( 'NONE', #170, #154, #1 ) ;
#54 = CARTESIAN_POINT ( 'NONE',  ( -6.250000000000000000, 0.0000000000000000000, 2.000000000000000000 ) ) ;
#55 = DIRECTION ( 'NONE',  ( 0.0000000000000000000, 0.0000000000000000000, 1.000000000000000000 ) ) ;
#56 = CALENDAR_DATE ( 2017, 31, 1 ) ;
#57 = ORIENTED_EDGE ( 'NONE', *, *, #108, .T. ) ;
#58 = PERSON_AND_ORGANIZATION_ROLE ( 'design_owner' ) ;
#59 = PRODUCT_RELATED_PRODUCT_CATEGORY ( 'detail', '', ( #121 ) ) ;
#60 = APPLICATION_PROTOCOL_DEFINITION ( 'international standard', 'config_control_design', 1994, #77 ) ;
#61 = COORDINATED_UNIVERSAL_TIME_OFFSET ( 5, 0, .BEHIND. ) ;
#62 = APPROVAL_STATUS ( 'not_yet_approved' ) ;
#63 = APPROVAL_STATUS ( 'not_yet_approved' ) ;
#64 = FACE_OUTER_BOUND ( 'NONE', #66, .T. ) ;
#65 = PERSON_AND_ORGANIZATION ( #17, #103 ) ;
#66 = EDGE_LOOP ( 'NONE', ( #26, #69 ) ) ;
#67 = CARTESIAN_POINT ( 'NONE',  ( 0.0000000000000000000, 0.0000000000000000000, 2.000000000000000000 ) ) ;
#68 = CC_DESIGN_PERSON_AND_ORGANIZATION_ASSIGNMENT ( #10, #92, ( #120 ) ) ;
#69 = ORIENTED_EDGE ( 'NONE', *, *, #97, .T. ) ;
#70 = EDGE_CURVE ( 'NONE', #137, #5, #145, .T. ) ;
#71 = ORIENTED_EDGE ( 'NONE', *, *, #110, .F. ) ;
#72 = CC_DESIGN_PERSON_AND_ORGANIZATION_ASSIGNMENT ( #65, #159, ( #134 ) ) ;
#73 =( LENGTH_UNIT ( ) NAMED_UNIT ( * ) SI_UNIT ( .MILLI., .METRE. ) );
#74 = ORIENTED_EDGE ( 'NONE', *, *, #118, .F. ) ;
#75 = APPLICATION_PROTOCOL_DEFINITION ( 'international standard', 'config_control_design', 1994, #158 ) ;
#76 = APPROVAL_ROLE ( '' ) ;
#77 = APPLICATION_CONTEXT ( 'configuration controlled 3d designs of mechanical parts and assemblies' ) ;
#78 = CALENDAR_DATE ( 2017, 31, 1 ) ;
#79 = ORIENTED_EDGE ( 'NONE', *, *, #167, .T. ) ;
#80 = DATE_AND_TIME ( #119, #32 ) ;
#81 = PRODUCT_DEFINITION_SHAPE ( 'NONE', 'NONE',  #120 ) ;
#82 = ADVANCED_FACE ( 'NONE', ( #64 ), #28, .T. ) ;
#83 = ORIENTED_EDGE ( 'NONE', *, *, #70, .F. ) ;
#84 = AXIS2_PLACEMENT_3D ( 'NONE', #87, #130, #105 ) ;
#85 = APPROVAL_DATE_TIME ( #132, #39 ) ;
#86 = DIRECTION ( 'NONE',  ( 0.0000000000000000000, 0.0000000000000000000, 1.000000000000000000 ) ) ;
#87 = CARTESIAN_POINT ( 'NONE',  ( 0.0000000000000000000, 0.0000000000000000000, 2.000000000000000000 ) ) ;
#88 = DIRECTION ( 'NONE',  ( 1.000000000000000000, 0.0000000000000000000, 0.0000000000000000000 ) ) ;
#89 = COORDINATED_UNIVERSAL_TIME_OFFSET ( 5, 0, .BEHIND. ) ;
#90 = APPROVAL ( #9, 'UNSPECIFIED' ) ;
#91 = APPROVAL_ROLE ( '' ) ;
#92 = PERSON_AND_ORGANIZATION_ROLE ( 'creator' ) ;
#93 = APPROVAL_ROLE ( '' ) ;
#94 = AXIS2_PLACEMENT_3D ( 'NONE', #3, #141, #16 ) ;
#95 = ADVANCED_FACE ( 'NONE', ( #44 ), #166, .F. ) ;
#96 = ADVANCED_FACE ( 'NONE', ( #20 ), #106, .T. ) ;
#97 = EDGE_CURVE ( 'NONE', #5, #137, #133, .T. ) ;
#98 = COORDINATED_UNIVERSAL_TIME_OFFSET ( 5, 0, .BEHIND. ) ;
#99 = VECTOR ( 'NONE', #14, 1000.000000000000000 ) ;
#100 = UNCERTAINTY_MEASURE_WITH_UNIT (LENGTH_MEASURE( 1.000000000000000100E-005 ), #73, 'distance_accuracy_value', 'NONE');
#101 = CARTESIAN_POINT ( 'NONE',  ( 6.250000000000000000, 7.654042494670957600E-016, 2.000000000000000000 ) ) ;
#102 = APPROVAL_PERSON_ORGANIZATION ( #173, #90, #93 ) ;
#103 = ORGANIZATION ( 'UNSPECIFIED', 'UNSPECIFIED', '' ) ;
#104 = APPROVAL ( #63, 'UNSPECIFIED' ) ;
#105 = DIRECTION ( 'NONE',  ( 1.000000000000000000, 0.0000000000000000000, 0.0000000000000000000 ) ) ;
#106 = CYLINDRICAL_SURFACE ( 'NONE', #43, 6.250000000000000000 ) ;
#107 = DIRECTION ( 'NONE',  ( 1.000000000000000000, 0.0000000000000000000, 0.0000000000000000000 ) ) ;
#108 = EDGE_CURVE ( 'NONE', #123, #15, #52, .T. ) ;
#109 = EDGE_LOOP ( 'NONE', ( #74, #83, #79, #22 ) ) ;
#110 = EDGE_CURVE ( 'NONE', #15, #123, #171, .T. ) ;
#111 = LOCAL_TIME ( 14, 36, 58.00000000000000000, #61 ) ;
#112 = ORIENTED_EDGE ( 'NONE', *, *, #167, .F. ) ;
#113 = DIRECTION ( 'NONE',  ( 0.0000000000000000000, 0.0000000000000000000, 1.000000000000000000 ) ) ;
#114 = CARTESIAN_POINT ( 'NONE',  ( 0.0000000000000000000, 0.0000000000000000000, 0.0000000000000000000 ) ) ;
#115 = DIRECTION ( 'NONE',  ( -0.0000000000000000000, -0.0000000000000000000, -1.000000000000000000 ) ) ;
#116 = PERSON_AND_ORGANIZATION ( #17, #103 ) ;
#117 = DATE_AND_TIME ( #152, #135 ) ;
#118 = EDGE_CURVE ( 'NONE', #5, #123, #160, .T. ) ;
#119 = CALENDAR_DATE ( 2017, 31, 1 ) ;
#120 = PRODUCT_DEFINITION ( 'UNKNOWN', '', #134, #175 ) ;
#121 = PRODUCT ( 'Web Model 66200', 'Web Model 66200', '', ( #49 ) ) ;
#122 = APPROVAL_DATE_TIME ( #18, #90 ) ;
#123 = VERTEX_POINT ( 'NONE', #46 ) ;
#124 = CC_DESIGN_APPROVAL ( #90, ( #134 ) ) ;
#125 = LOCAL_TIME ( 14, 36, 58.00000000000000000, #136 ) ;
#126 = AXIS2_PLACEMENT_3D ( 'NONE', #67, #115, #140 ) ;
#127 = APPROVAL_PERSON_ORGANIZATION ( #169, #104, #76 ) ;
#128 = CC_DESIGN_DATE_AND_TIME_ASSIGNMENT ( #80, #35, ( #120 ) ) ;
#129 = AXIS2_PLACEMENT_3D ( 'NONE', #165, #86, #156 ) ;
#130 = DIRECTION ( 'NONE',  ( 0.0000000000000000000, 0.0000000000000000000, 1.000000000000000000 ) ) ;
#131 = CARTESIAN_POINT ( 'NONE',  ( 0.0000000000000000000, 0.0000000000000000000, 0.0000000000000000000 ) ) ;
#132 = DATE_AND_TIME ( #78, #45 ) ;
#133 = CIRCLE ( 'NONE', #7, 6.250000000000000000 ) ;
#134 = PRODUCT_DEFINITION_FORMATION_WITH_SPECIFIED_SOURCE ( 'ANY', '', #121, .NOT_KNOWN. ) ;
#135 = LOCAL_TIME ( 14, 36, 58.00000000000000000, #89 ) ;
#136 = COORDINATED_UNIVERSAL_TIME_OFFSET ( 5, 0, .BEHIND. ) ;
#137 = VERTEX_POINT ( 'NONE', #54 ) ;
#138 = CC_DESIGN_PERSON_AND_ORGANIZATION_ASSIGNMENT ( #23, #58, ( #121 ) ) ;
#139 = CC_DESIGN_APPROVAL ( #104, ( #120 ) ) ;
#140 = DIRECTION ( 'NONE',  ( -1.000000000000000000, 0.0000000000000000000, 0.0000000000000000000 ) ) ;
#141 = DIRECTION ( 'NONE',  ( 0.0000000000000000000, 0.0000000000000000000, 1.000000000000000000 ) ) ;
#142 = AXIS2_PLACEMENT_3D ( 'NONE', #131, #113, #29 ) ;
#143 = ORIENTED_EDGE ( 'NONE', *, *, #118, .T. ) ;
#144 = DIRECTION ( 'NONE',  ( -0.0000000000000000000, -0.0000000000000000000, -1.000000000000000000 ) ) ;
#145 = CIRCLE ( 'NONE', #84, 6.250000000000000000 ) ;
#146 = CC_DESIGN_PERSON_AND_ORGANIZATION_ASSIGNMENT ( #50, #6, ( #134 ) ) ;
#147 = LINE ( 'NONE', #13, #11 ) ;
#148 = DATE_TIME_ROLE ( 'classification_date' ) ;
#149 = PERSON_AND_ORGANIZATION ( #17, #103 ) ;
#150 = ORIENTED_EDGE ( 'NONE', *, *, #108, .F. ) ;
#151 = CC_DESIGN_APPROVAL ( #39, ( #4 ) ) ;
#152 = CALENDAR_DATE ( 2017, 31, 1 ) ;
#153 = CC_DESIGN_SECURITY_CLASSIFICATION ( #4, ( #134 ) ) ;
#154 = DIRECTION ( 'NONE',  ( 0.0000000000000000000, 0.0000000000000000000, 1.000000000000000000 ) ) ;
#155 = CARTESIAN_POINT ( 'NONE',  ( -6.250000000000000000, 0.0000000000000000000, 0.0000000000000000000 ) ) ;
#156 = DIRECTION ( 'NONE',  ( 1.000000000000000000, 0.0000000000000000000, -0.0000000000000000000 ) ) ;
#157 = APPROVAL_DATE_TIME ( #117, #104 ) ;
#158 = APPLICATION_CONTEXT ( 'configuration controlled 3d designs of mechanical parts and assemblies' ) ;
#159 = PERSON_AND_ORGANIZATION_ROLE ( 'design_supplier' ) ;
#160 = LINE ( 'NONE', #164, #99 ) ;
#161 = CC_DESIGN_PERSON_AND_ORGANIZATION_ASSIGNMENT ( #149, #172, ( #4 ) ) ;
#162 = DATE_AND_TIME ( #48, #111 ) ;
#163 = COORDINATED_UNIVERSAL_TIME_OFFSET ( 5, 0, .BEHIND. ) ;
#164 = CARTESIAN_POINT ( 'NONE',  ( 6.250000000000000000, 7.654042494670957600E-016, 2.000000000000000000 ) ) ;
#165 = CARTESIAN_POINT ( 'NONE',  ( 0.0000000000000000000, 0.0000000000000000000, 2.000000000000000000 ) ) ;
#166 = PLANE ( 'NONE',  #142 ) ;
#167 = EDGE_CURVE ( 'NONE', #137, #15, #147, .T. ) ;
#168 = DIRECTION ( 'NONE',  ( -1.000000000000000000, 0.0000000000000000000, 0.0000000000000000000 ) ) ;
#169 = PERSON_AND_ORGANIZATION ( #17, #103 ) ;
#170 = CARTESIAN_POINT ( 'NONE',  ( 0.0000000000000000000, 0.0000000000000000000, 0.0000000000000000000 ) ) ;
#171 = CIRCLE ( 'NONE', #94, 6.250000000000000000 ) ;
#172 = PERSON_AND_ORGANIZATION_ROLE ( 'classification_officer' ) ;
#173 = PERSON_AND_ORGANIZATION ( #17, #103 ) ;
#174 = EDGE_LOOP ( 'NONE', ( #8, #143, #57, #112 ) ) ;
#175 = DESIGN_CONTEXT ( 'detailed design', #158, 'design' ) ;
ENDSEC;
END-ISO-10303-21;
