ISO-10303-21;
HEADER;
FILE_DESCRIPTION (( 'STEP AP203' ),
    '1' );
FILE_NAME ('Web Model 83477.STEP',
    '2017-02-01T15:24:09',
    ( '' ),
    ( '' ),
    'SwSTEP 2.0',
    'SolidWorks 2016',
    '' );
FILE_SCHEMA (( 'CONFIG_CONTROL_DESIGN' ));
ENDSEC;

DATA;
#1 = APPROVAL_STATUS ( 'not_yet_approved' ) ;
#2 = CLOSED_SHELL ( 'NONE', ( #63, #138, #29, #80 ) ) ;
#3 = DIRECTION ( 'NONE',  ( 1.000000000000000000, 0.0000000000000000000, 0.0000000000000000000 ) ) ;
#4 = PERSON_AND_ORGANIZATION_ROLE ( 'design_owner' ) ;
#5 = AXIS2_PLACEMENT_3D ( 'NONE', #58, #22, #3 ) ;
#6 = ORIENTED_EDGE ( 'NONE', *, *, #54, .T. ) ;
#7 = APPROVAL_PERSON_ORGANIZATION ( #145, #20, #15 ) ;
#8 = FACE_OUTER_BOUND ( 'NONE', #155, .T. ) ;
#9 = VERTEX_POINT ( 'NONE', #143 ) ;
#10 = DIRECTION ( 'NONE',  ( 1.000000000000000000, 0.0000000000000000000, -0.0000000000000000000 ) ) ;
#11 = PERSON_AND_ORGANIZATION ( #41, #154 ) ;
#12 = CARTESIAN_POINT ( 'NONE',  ( 25.00000000000000000, 3.061616997868383000E-015, 0.0000000000000000000 ) ) ;
#13 =( LENGTH_UNIT ( ) NAMED_UNIT ( * ) SI_UNIT ( .MILLI., .METRE. ) );
#14 = APPLICATION_CONTEXT ( 'configuration controlled 3d designs of mechanical parts and assemblies' ) ;
#15 = APPROVAL_ROLE ( '' ) ;
#16 = UNCERTAINTY_MEASURE_WITH_UNIT (LENGTH_MEASURE( 1.000000000000000100E-005 ), #13, 'distance_accuracy_value', 'NONE');
#17 = PRODUCT_RELATED_PRODUCT_CATEGORY ( 'detail', '', ( #42 ) ) ;
#18 = CALENDAR_DATE ( 2017, 1, 2 ) ;
#19 = PERSON_AND_ORGANIZATION ( #41, #154 ) ;
#20 = APPROVAL ( #118, 'UNSPECIFIED' ) ;
#21 = ADVANCED_BREP_SHAPE_REPRESENTATION ( 'Web Model 83477', ( #148, #5 ), #55 ) ;
#22 = DIRECTION ( 'NONE',  ( 0.0000000000000000000, 0.0000000000000000000, 1.000000000000000000 ) ) ;
#23 = DIRECTION ( 'NONE',  ( 0.0000000000000000000, 0.0000000000000000000, 1.000000000000000000 ) ) ;
#24 = PERSON_AND_ORGANIZATION ( #41, #154 ) ;
#25 = DIRECTION ( 'NONE',  ( 1.000000000000000000, 0.0000000000000000000, 0.0000000000000000000 ) ) ;
#26 = ORIENTED_EDGE ( 'NONE', *, *, #107, .T. ) ;
#27 = APPROVAL_ROLE ( '' ) ;
#28 = DATE_AND_TIME ( #97, #124 ) ;
#29 = ADVANCED_FACE ( 'NONE', ( #67 ), #73, .T. ) ;
#30 = AXIS2_PLACEMENT_3D ( 'NONE', #131, #57, #71 ) ;
#31 = CC_DESIGN_DATE_AND_TIME_ASSIGNMENT ( #28, #150, ( #110 ) ) ;
#32 = ORIENTED_EDGE ( 'NONE', *, *, #54, .F. ) ;
#33 = AXIS2_PLACEMENT_3D ( 'NONE', #93, #90, #62 ) ;
#34 = DIRECTION ( 'NONE',  ( -0.0000000000000000000, -0.0000000000000000000, -1.000000000000000000 ) ) ;
#35 = DIRECTION ( 'NONE',  ( 1.000000000000000000, 0.0000000000000000000, -0.0000000000000000000 ) ) ;
#36 = VERTEX_POINT ( 'NONE', #12 ) ;
#37 = FACE_OUTER_BOUND ( 'NONE', #85, .T. ) ;
#38 = DATE_TIME_ROLE ( 'creation_date' ) ;
#39 = DESIGN_CONTEXT ( 'detailed design', #14, 'design' ) ;
#40 = PERSON_AND_ORGANIZATION_ROLE ( 'classification_officer' ) ;
#41 = PERSON ( 'UNSPECIFIED', 'UNSPECIFIED', 'UNSPECIFIED', ('UNSPECIFIED'), ('UNSPECIFIED'), ('UNSPECIFIED') ) ;
#42 = PRODUCT ( 'Web Model 83477', 'Web Model 83477', '', ( #163 ) ) ;
#43 = CALENDAR_DATE ( 2017, 1, 2 ) ;
#44 = FACE_OUTER_BOUND ( 'NONE', #68, .T. ) ;
#45 = ORIENTED_EDGE ( 'NONE', *, *, #167, .F. ) ;
#46 = ORIENTED_EDGE ( 'NONE', *, *, #56, .T. ) ;
#47 = CARTESIAN_POINT ( 'NONE',  ( 25.00000000000000000, 3.061616997868383000E-015, 4.000000000000000000 ) ) ;
#48 = CARTESIAN_POINT ( 'NONE',  ( 0.0000000000000000000, 0.0000000000000000000, 0.0000000000000000000 ) ) ;
#49 = COORDINATED_UNIVERSAL_TIME_OFFSET ( 5, 0, .BEHIND. ) ;
#50 = ORIENTED_EDGE ( 'NONE', *, *, #56, .F. ) ;
#51 = ORIENTED_EDGE ( 'NONE', *, *, #86, .F. ) ;
#52 = APPROVAL_DATE_TIME ( #89, #120 ) ;
#53 = DATE_AND_TIME ( #43, #69 ) ;
#54 = EDGE_CURVE ( 'NONE', #9, #36, #72, .T. ) ;
#55 =( GEOMETRIC_REPRESENTATION_CONTEXT ( 3 ) GLOBAL_UNCERTAINTY_ASSIGNED_CONTEXT ( ( #16 ) ) GLOBAL_UNIT_ASSIGNED_CONTEXT ( ( #13, #92, #149 ) ) REPRESENTATION_CONTEXT ( 'NONE', 'WORKASPACE' ) );
#56 = EDGE_CURVE ( 'NONE', #166, #122, #151, .T. ) ;
#57 = DIRECTION ( 'NONE',  ( -0.0000000000000000000, -0.0000000000000000000, -1.000000000000000000 ) ) ;
#58 = CARTESIAN_POINT ( 'NONE',  ( 0.0000000000000000000, 0.0000000000000000000, 0.0000000000000000000 ) ) ;
#59 = DIRECTION ( 'NONE',  ( 0.0000000000000000000, 0.0000000000000000000, 1.000000000000000000 ) ) ;
#60 = PLANE ( 'NONE',  #168 ) ;
#61 = LOCAL_TIME ( 10, 24, 9.000000000000000000, #172 ) ;
#62 = DIRECTION ( 'NONE',  ( 1.000000000000000000, 0.0000000000000000000, 0.0000000000000000000 ) ) ;
#63 = ADVANCED_FACE ( 'NONE', ( #8 ), #76, .T. ) ;
#64 = APPLICATION_CONTEXT ( 'configuration controlled 3d designs of mechanical parts and assemblies' ) ;
#65 = CC_DESIGN_PERSON_AND_ORGANIZATION_ASSIGNMENT ( #24, #4, ( #42 ) ) ;
#66 = AXIS2_PLACEMENT_3D ( 'NONE', #132, #174, #144 ) ;
#67 = FACE_OUTER_BOUND ( 'NONE', #81, .T. ) ;
#68 = EDGE_LOOP ( 'NONE', ( #127, #45, #111, #6 ) ) ;
#69 = LOCAL_TIME ( 10, 24, 9.000000000000000000, #109 ) ;
#70 = PRODUCT_DEFINITION ( 'UNKNOWN', '', #139, #39 ) ;
#71 = DIRECTION ( 'NONE',  ( -1.000000000000000000, 0.0000000000000000000, 0.0000000000000000000 ) ) ;
#72 = CIRCLE ( 'NONE', #66, 25.00000000000000000 ) ;
#73 = PLANE ( 'NONE',  #78 ) ;
#74 = CARTESIAN_POINT ( 'NONE',  ( 0.0000000000000000000, 0.0000000000000000000, 4.000000000000000000 ) ) ;
#75 = ORIENTED_EDGE ( 'NONE', *, *, #86, .T. ) ;
#76 = CYLINDRICAL_SURFACE ( 'NONE', #173, 25.00000000000000000 ) ;
#77 = CARTESIAN_POINT ( 'NONE',  ( 25.00000000000000000, 3.061616997868383000E-015, 4.000000000000000000 ) ) ;
#78 = AXIS2_PLACEMENT_3D ( 'NONE', #175, #146, #10 ) ;
#79 = SECURITY_CLASSIFICATION_LEVEL ( 'unclassified' ) ;
#80 = ADVANCED_FACE ( 'NONE', ( #37 ), #60, .F. ) ;
#81 = EDGE_LOOP ( 'NONE', ( #82, #46 ) ) ;
#82 = ORIENTED_EDGE ( 'NONE', *, *, #167, .T. ) ;
#83 = CC_DESIGN_APPROVAL ( #20, ( #70 ) ) ;
#84 = CYLINDRICAL_SURFACE ( 'NONE', #30, 25.00000000000000000 ) ;
#85 = EDGE_LOOP ( 'NONE', ( #32, #51 ) ) ;
#86 = EDGE_CURVE ( 'NONE', #36, #9, #108, .T. ) ;
#87 = CALENDAR_DATE ( 2017, 1, 2 ) ;
#88 = APPROVAL_DATE_TIME ( #53, #157 ) ;
#89 = DATE_AND_TIME ( #94, #133 ) ;
#90 = DIRECTION ( 'NONE',  ( 0.0000000000000000000, 0.0000000000000000000, 1.000000000000000000 ) ) ;
#91 = CC_DESIGN_PERSON_AND_ORGANIZATION_ASSIGNMENT ( #95, #147, ( #70 ) ) ;
#92 =( NAMED_UNIT ( * ) PLANE_ANGLE_UNIT ( ) SI_UNIT ( $, .RADIAN. ) );
#93 = CARTESIAN_POINT ( 'NONE',  ( 0.0000000000000000000, 0.0000000000000000000, 4.000000000000000000 ) ) ;
#94 = CALENDAR_DATE ( 2017, 1, 2 ) ;
#95 = PERSON_AND_ORGANIZATION ( #41, #154 ) ;
#96 = PERSON_AND_ORGANIZATION ( #41, #154 ) ;
#97 = CALENDAR_DATE ( 2017, 1, 2 ) ;
#98 = CC_DESIGN_PERSON_AND_ORGANIZATION_ASSIGNMENT ( #96, #160, ( #139 ) ) ;
#99 = DIRECTION ( 'NONE',  ( 1.000000000000000000, 0.0000000000000000000, 0.0000000000000000000 ) ) ;
#100 = CARTESIAN_POINT ( 'NONE',  ( 0.0000000000000000000, 0.0000000000000000000, 4.000000000000000000 ) ) ;
#101 = DIRECTION ( 'NONE',  ( -0.0000000000000000000, -0.0000000000000000000, -1.000000000000000000 ) ) ;
#102 = APPLICATION_PROTOCOL_DEFINITION ( 'international standard', 'config_control_design', 1994, #64 ) ;
#103 = LINE ( 'NONE', #77, #165 ) ;
#104 = APPROVAL_PERSON_ORGANIZATION ( #141, #157, #27 ) ;
#105 = APPROVAL_ROLE ( '' ) ;
#106 = APPROVAL_STATUS ( 'not_yet_approved' ) ;
#107 = EDGE_CURVE ( 'NONE', #166, #36, #103, .T. ) ;
#108 = CIRCLE ( 'NONE', #161, 25.00000000000000000 ) ;
#109 = COORDINATED_UNIVERSAL_TIME_OFFSET ( 5, 0, .BEHIND. ) ;
#110 = SECURITY_CLASSIFICATION ( '', '', #79 ) ;
#111 = ORIENTED_EDGE ( 'NONE', *, *, #121, .T. ) ;
#112 = SHAPE_DEFINITION_REPRESENTATION ( #153, #21 ) ;
#113 = AXIS2_PLACEMENT_3D ( 'NONE', #100, #114, #99 ) ;
#114 = DIRECTION ( 'NONE',  ( 0.0000000000000000000, 0.0000000000000000000, 1.000000000000000000 ) ) ;
#115 = ORIENTED_EDGE ( 'NONE', *, *, #121, .F. ) ;
#116 = CARTESIAN_POINT ( 'NONE',  ( -25.00000000000000000, 0.0000000000000000000, 4.000000000000000000 ) ) ;
#117 = APPLICATION_PROTOCOL_DEFINITION ( 'international standard', 'config_control_design', 1994, #14 ) ;
#118 = APPROVAL_STATUS ( 'not_yet_approved' ) ;
#119 = VECTOR ( 'NONE', #34, 1000.000000000000000 ) ;
#120 = APPROVAL ( #106, 'UNSPECIFIED' ) ;
#121 = EDGE_CURVE ( 'NONE', #122, #9, #158, .T. ) ;
#122 = VERTEX_POINT ( 'NONE', #159 ) ;
#123 = CC_DESIGN_SECURITY_CLASSIFICATION ( #110, ( #139 ) ) ;
#124 = LOCAL_TIME ( 10, 24, 9.000000000000000000, #164 ) ;
#125 = CC_DESIGN_APPROVAL ( #157, ( #110 ) ) ;
#126 = DATE_AND_TIME ( #87, #135 ) ;
#127 = ORIENTED_EDGE ( 'NONE', *, *, #107, .F. ) ;
#128 = APPROVAL_DATE_TIME ( #169, #20 ) ;
#129 = CC_DESIGN_DATE_AND_TIME_ASSIGNMENT ( #126, #38, ( #70 ) ) ;
#130 = CARTESIAN_POINT ( 'NONE',  ( 0.0000000000000000000, 0.0000000000000000000, 0.0000000000000000000 ) ) ;
#131 = CARTESIAN_POINT ( 'NONE',  ( 0.0000000000000000000, 0.0000000000000000000, 4.000000000000000000 ) ) ;
#132 = CARTESIAN_POINT ( 'NONE',  ( 0.0000000000000000000, 0.0000000000000000000, 0.0000000000000000000 ) ) ;
#133 = LOCAL_TIME ( 10, 24, 9.000000000000000000, #49 ) ;
#134 = DIRECTION ( 'NONE',  ( -0.0000000000000000000, -0.0000000000000000000, -1.000000000000000000 ) ) ;
#135 = LOCAL_TIME ( 10, 24, 9.000000000000000000, #162 ) ;
#136 = CC_DESIGN_APPROVAL ( #120, ( #139 ) ) ;
#137 = PERSON_AND_ORGANIZATION_ROLE ( 'creator' ) ;
#138 = ADVANCED_FACE ( 'NONE', ( #44 ), #84, .T. ) ;
#139 = PRODUCT_DEFINITION_FORMATION_WITH_SPECIFIED_SOURCE ( 'ANY', '', #42, .NOT_KNOWN. ) ;
#140 = CIRCLE ( 'NONE', #33, 25.00000000000000000 ) ;
#141 = PERSON_AND_ORGANIZATION ( #41, #154 ) ;
#142 = DIRECTION ( 'NONE',  ( -1.000000000000000000, 0.0000000000000000000, 0.0000000000000000000 ) ) ;
#143 = CARTESIAN_POINT ( 'NONE',  ( -25.00000000000000000, 0.0000000000000000000, 0.0000000000000000000 ) ) ;
#144 = DIRECTION ( 'NONE',  ( 1.000000000000000000, 0.0000000000000000000, 0.0000000000000000000 ) ) ;
#145 = PERSON_AND_ORGANIZATION ( #41, #154 ) ;
#146 = DIRECTION ( 'NONE',  ( 0.0000000000000000000, 0.0000000000000000000, 1.000000000000000000 ) ) ;
#147 = PERSON_AND_ORGANIZATION_ROLE ( 'creator' ) ;
#148 = MANIFOLD_SOLID_BREP ( 'Extrude1', #2 ) ;
#149 =( NAMED_UNIT ( * ) SI_UNIT ( $, .STERADIAN. ) SOLID_ANGLE_UNIT ( ) );
#150 = DATE_TIME_ROLE ( 'classification_date' ) ;
#151 = CIRCLE ( 'NONE', #113, 25.00000000000000000 ) ;
#152 = CC_DESIGN_PERSON_AND_ORGANIZATION_ASSIGNMENT ( #19, #137, ( #139 ) ) ;
#153 = PRODUCT_DEFINITION_SHAPE ( 'NONE', 'NONE',  #70 ) ;
#154 = ORGANIZATION ( 'UNSPECIFIED', 'UNSPECIFIED', '' ) ;
#155 = EDGE_LOOP ( 'NONE', ( #50, #26, #75, #115 ) ) ;
#156 = APPROVAL_PERSON_ORGANIZATION ( #170, #120, #105 ) ;
#157 = APPROVAL ( #1, 'UNSPECIFIED' ) ;
#158 = LINE ( 'NONE', #116, #119 ) ;
#159 = CARTESIAN_POINT ( 'NONE',  ( -25.00000000000000000, 0.0000000000000000000, 4.000000000000000000 ) ) ;
#160 = PERSON_AND_ORGANIZATION_ROLE ( 'design_supplier' ) ;
#161 = AXIS2_PLACEMENT_3D ( 'NONE', #130, #23, #25 ) ;
#162 = COORDINATED_UNIVERSAL_TIME_OFFSET ( 5, 0, .BEHIND. ) ;
#163 = MECHANICAL_CONTEXT ( 'NONE', #64, 'mechanical' ) ;
#164 = COORDINATED_UNIVERSAL_TIME_OFFSET ( 5, 0, .BEHIND. ) ;
#165 = VECTOR ( 'NONE', #101, 1000.000000000000000 ) ;
#166 = VERTEX_POINT ( 'NONE', #47 ) ;
#167 = EDGE_CURVE ( 'NONE', #122, #166, #140, .T. ) ;
#168 = AXIS2_PLACEMENT_3D ( 'NONE', #48, #59, #35 ) ;
#169 = DATE_AND_TIME ( #18, #61 ) ;
#170 = PERSON_AND_ORGANIZATION ( #41, #154 ) ;
#171 = CC_DESIGN_PERSON_AND_ORGANIZATION_ASSIGNMENT ( #11, #40, ( #110 ) ) ;
#172 = COORDINATED_UNIVERSAL_TIME_OFFSET ( 5, 0, .BEHIND. ) ;
#173 = AXIS2_PLACEMENT_3D ( 'NONE', #74, #134, #142 ) ;
#174 = DIRECTION ( 'NONE',  ( 0.0000000000000000000, 0.0000000000000000000, 1.000000000000000000 ) ) ;
#175 = CARTESIAN_POINT ( 'NONE',  ( 0.0000000000000000000, 0.0000000000000000000, 4.000000000000000000 ) ) ;
ENDSEC;
END-ISO-10303-21;
