ISO-10303-21;
HEADER;
FILE_DESCRIPTION (( 'STEP AP203' ),
    '1' );
FILE_NAME ('20224-E0W.STEP',
    '2009-09-14T20:10:42',
    ( 'Admin' ),
    ( 'Thorlabs, Inc.' ),
    'SwSTEP 2.0',
    'SolidWorks 2007',
    '' );
FILE_SCHEMA (( 'CONFIG_CONTROL_DESIGN' ));
ENDSEC;

DATA;
#1 = ADVANCED_FACE ( 'NONE', ( #68 ), #99, .T. ) ;
#2 = ORIENTED_EDGE ( 'NONE', *, *, #23, .F. ) ;
#3 = ORIENTED_EDGE ( 'NONE', *, *, #11, .T. ) ;
#4 = ORIENTED_EDGE ( 'NONE', *, *, #22, .T. ) ;
#5 = EDGE_LOOP ( 'NONE', ( #7, #54, #16 ) ) ;
#6 = ORIENTED_EDGE ( 'NONE', *, *, #56, .F. ) ;
#7 = ORIENTED_EDGE ( 'NONE', *, *, #31, .F. ) ;
#8 = ADVANCED_FACE ( 'NONE', ( #98 ), #96, .T. ) ;
#9 = EDGE_LOOP ( 'NONE', ( #2, #3, #4, #6 ) ) ;
#10 = CLOSED_SHELL ( 'NONE', ( #18, #25, #30, #53, #8, #1 ) ) ;
#11 = EDGE_CURVE ( 'NONE', #35, #33, #72, .T. ) ;
#12 = EDGE_CURVE ( 'NONE', #13, #37, #65, .T. ) ;
#13 = VERTEX_POINT ( 'NONE', #60 ) ;
#14 = ORIENTED_EDGE ( 'NONE', *, *, #15, .T. ) ;
#15 = EDGE_CURVE ( 'NONE', #13, #20, #84, .T. ) ;
#16 = ORIENTED_EDGE ( 'NONE', *, *, #11, .F. ) ;
#17 = ORIENTED_EDGE ( 'NONE', *, *, #27, .T. ) ;
#18 = ADVANCED_FACE ( 'NONE', ( #79 ), #78, .T. ) ;
#19 = EDGE_LOOP ( 'NONE', ( #34, #26, #24, #21 ) ) ;
#20 = VERTEX_POINT ( 'NONE', #92 ) ;
#21 = ORIENTED_EDGE ( 'NONE', *, *, #22, .F. ) ;
#22 = EDGE_CURVE ( 'NONE', #33, #20, #91, .T. ) ;
#23 = EDGE_CURVE ( 'NONE', #35, #37, #87, .T. ) ;
#24 = ORIENTED_EDGE ( 'NONE', *, *, #27, .F. ) ;
#25 = ADVANCED_FACE ( 'NONE', ( #113 ), #112, .T. ) ;
#26 = ORIENTED_EDGE ( 'NONE', *, *, #23, .T. ) ;
#27 = EDGE_CURVE ( 'NONE', #20, #37, #107, .T. ) ;
#28 = ORIENTED_EDGE ( 'NONE', *, *, #12, .F. ) ;
#29 = EDGE_LOOP ( 'NONE', ( #28, #14, #17 ) ) ;
#30 = ADVANCED_FACE ( 'NONE', ( #102 ), #101, .F. ) ;
#31 = EDGE_CURVE ( 'NONE', #42, #35, #121, .T. ) ;
#32 = ORIENTED_EDGE ( 'NONE', *, *, #39, .F. ) ;
#33 = VERTEX_POINT ( 'NONE', #117 ) ;
#34 = ORIENTED_EDGE ( 'NONE', *, *, #39, .T. ) ;
#35 = VERTEX_POINT ( 'NONE', #116 ) ;
#36 = EDGE_LOOP ( 'NONE', ( #41, #44, #32 ) ) ;
#37 = VERTEX_POINT ( 'NONE', #40 ) ;
#38 = MANIFOLD_SOLID_BREP ( 'NONE', #10 ) ;
#39 = EDGE_CURVE ( 'NONE', #33, #35, #48, .T. ) ;
#40 = CARTESIAN_POINT ( 'NONE',  ( 0.0000000000000000000, 6.350000000000000500, 3.448149121185986000 ) ) ;
#41 = ORIENTED_EDGE ( 'NONE', *, *, #43, .F. ) ;
#42 = VERTEX_POINT ( 'NONE', #212 ) ;
#43 = EDGE_CURVE ( 'NONE', #42, #33, #214, .T. ) ;
#44 = ORIENTED_EDGE ( 'NONE', *, *, #31, .T. ) ;
#45 = DIRECTION ( 'NONE',  ( 0.0000000000000000000, -1.836909530733565600E-016, 1.000000000000000000 ) ) ;
#46 = CARTESIAN_POINT ( 'NONE',  ( 0.0000000000000000000, 1.753269712056400400E-016, 0.5455329003839203300 ) ) ;
#47 = DIRECTION ( 'NONE',  ( 0.0000000000000000000, -1.000000000000000000, -1.878145495644179100E-016 ) ) ;
#48 = CIRCLE ( 'NONE', #49, 6.350000000000005900 ) ;
#49 = AXIS2_PLACEMENT_3D ( 'NONE', #46, #45, #47 ) ;
#50 = ORIENTED_EDGE ( 'NONE', *, *, #56, .T. ) ;
#51 = ORIENTED_EDGE ( 'NONE', *, *, #15, .F. ) ;
#52 = ORIENTED_EDGE ( 'NONE', *, *, #12, .T. ) ;
#53 = ADVANCED_FACE ( 'NONE', ( #207 ), #161, .F. ) ;
#54 = ORIENTED_EDGE ( 'NONE', *, *, #43, .T. ) ;
#55 = EDGE_LOOP ( 'NONE', ( #51, #52, #50 ) ) ;
#56 = EDGE_CURVE ( 'NONE', #37, #20, #156, .T. ) ;
#57 = CC_DESIGN_SECURITY_CLASSIFICATION ( #218, ( #196 ) ) ;
#58 = CARTESIAN_POINT ( 'NONE',  ( 0.0000000000000000000, 0.0000000000000000000, 1.500000000000000000 ) ) ;
#59 = DIRECTION ( 'NONE',  ( 0.0000000000000000000, -1.836909530733565600E-016, 1.000000000000000000 ) ) ;
#60 = CARTESIAN_POINT ( 'NONE',  ( 0.0000000000000000000, 2.773243548866149100E-015, 1.499999999999999600 ) ) ;
#61 = DIRECTION ( 'NONE',  ( 0.0000000000000000000, 0.0000000000000000000, -1.000000000000000000 ) ) ;
#62 = DIRECTION ( 'NONE',  ( 1.000000000000000000, 0.0000000000000000000, 0.0000000000000000000 ) ) ;
#63 = CARTESIAN_POINT ( 'NONE',  ( 0.0000000000000000000, 0.0000000000000000000, 12.82299999999997400 ) ) ;
#64 = AXIS2_PLACEMENT_3D ( 'NONE', #63, #62, #61 ) ;
#65 = CIRCLE ( 'NONE', #64, 11.32299999999997400 ) ;
#66 = DIRECTION ( 'NONE',  ( 0.0000000000000000000, -1.000000000000000000, -1.878145495644179100E-016 ) ) ;
#67 = DIRECTION ( 'NONE',  ( 0.0000000000000000000, -1.836909530733565600E-016, 1.000000000000000000 ) ) ;
#68 = FACE_OUTER_BOUND ( 'NONE', #9, .T. ) ;
#69 = PRODUCT_RELATED_PRODUCT_CATEGORY ( 'detail', '', ( #152 ) ) ;
#70 = CARTESIAN_POINT ( 'NONE',  ( 0.0000000000000000000, 1.753269712056400400E-016, 0.5455329003839203300 ) ) ;
#71 = AXIS2_PLACEMENT_3D ( 'NONE', #70, #67, #66 ) ;
#72 = CIRCLE ( 'NONE', #71, 6.350000000000005900 ) ;
#73 = DIRECTION ( 'NONE',  ( 0.0000000000000000000, -1.000000000000000000, -1.594561518500609100E-016 ) ) ;
#74 = DIRECTION ( 'NONE',  ( 1.000000000000000000, 0.0000000000000000000, 0.0000000000000000000 ) ) ;
#75 = CARTESIAN_POINT ( 'NONE',  ( 0.0000000000000000000, 0.0000000000000000000, 9.378999999999971100 ) ) ;
#76 = AXIS2_PLACEMENT_3D ( 'NONE', #75, #74, #73 ) ;
#77 = DIRECTION ( 'NONE',  ( 0.0000000000000000000, -1.000000000000000000, -1.707404996040163500E-016 ) ) ;
#78 = CYLINDRICAL_SURFACE ( 'NONE', #95, 6.350000000000003200 ) ;
#79 = FACE_OUTER_BOUND ( 'NONE', #19, .T. ) ;
#80 = DIRECTION ( 'NONE',  ( -1.224606353822377300E-016, -1.000000000000000000, 0.0000000000000000000 ) ) ;
#81 = DIRECTION ( 'NONE',  ( -1.000000000000000000, 1.224606353822377300E-016, 2.249491082733205900E-032 ) ) ;
#82 = CARTESIAN_POINT ( 'NONE',  ( 0.0000000000000000000, 0.0000000000000000000, 12.82299999999997400 ) ) ;
#83 = AXIS2_PLACEMENT_3D ( 'NONE', #82, #81, #80 ) ;
#84 = CIRCLE ( 'NONE', #83, 11.32299999999997400 ) ;
#85 = CARTESIAN_POINT ( 'NONE',  ( 0.0000000000000000000, 0.0000000000000000000, 1.500000000000000000 ) ) ;
#86 = CARTESIAN_POINT ( 'NONE',  ( 7.776250346772099300E-016, 6.350000000000003200, 1.500000000000001100 ) ) ;
#87 = LINE ( 'NONE', #86, #115 ) ;
#88 = DIRECTION ( 'NONE',  ( 0.0000000000000000000, -1.836909530733565600E-016, 1.000000000000000000 ) ) ;
#89 = VECTOR ( 'NONE', #88, 1000.000000000000000 ) ;
#90 = CARTESIAN_POINT ( 'NONE',  ( 0.0000000000000000000, -6.350000000000003200, 1.499999999999998900 ) ) ;
#91 = LINE ( 'NONE', #90, #89 ) ;
#92 = CARTESIAN_POINT ( 'NONE',  ( -7.776250346772096400E-016, -6.349999999999999600, 3.448149121185983400 ) ) ;
#93 = DIRECTION ( 'NONE',  ( 0.0000000000000000000, -1.000000000000000000, -1.707404996040163500E-016 ) ) ;
#94 = DIRECTION ( 'NONE',  ( 0.0000000000000000000, -1.836909530733565600E-016, 1.000000000000000000 ) ) ;
#95 = AXIS2_PLACEMENT_3D ( 'NONE', #85, #94, #93 ) ;
#96 = SPHERICAL_SURFACE ( 'NONE', #76, 10.87899999999996600 ) ;
#97 = AXIS2_PLACEMENT_3D ( 'NONE', #58, #59, #77 ) ;
#98 = FACE_OUTER_BOUND ( 'NONE', #5, .T. ) ;
#99 = CYLINDRICAL_SURFACE ( 'NONE', #97, 6.350000000000003200 ) ;
#100 = CARTESIAN_POINT ( 'NONE',  ( 0.0000000000000000000, 0.0000000000000000000, 9.378999999999971100 ) ) ;
#101 = SPHERICAL_SURFACE ( 'NONE', #125, 11.32299999999997400 ) ;
#102 = FACE_OUTER_BOUND ( 'NONE', #29, .T. ) ;
#103 = DIRECTION ( 'NONE',  ( 0.0000000000000000000, -1.000000000000000000, -2.048885995248196900E-016 ) ) ;
#104 = DIRECTION ( 'NONE',  ( 0.0000000000000000000, -1.836909530733565600E-016, 1.000000000000000000 ) ) ;
#105 = CARTESIAN_POINT ( 'NONE',  ( 0.0000000000000000000, -3.578573687996755000E-016, 3.448149121185984300 ) ) ;
#106 = AXIS2_PLACEMENT_3D ( 'NONE', #105, #104, #103 ) ;
#107 = CIRCLE ( 'NONE', #106, 6.350000000000001400 ) ;
#108 = DIRECTION ( 'NONE',  ( 0.0000000000000000000, -1.000000000000000000, -1.594561518500609100E-016 ) ) ;
#109 = DIRECTION ( 'NONE',  ( 1.000000000000000000, 0.0000000000000000000, 0.0000000000000000000 ) ) ;
#110 = CARTESIAN_POINT ( 'NONE',  ( 0.0000000000000000000, 0.0000000000000000000, 9.378999999999971100 ) ) ;
#111 = AXIS2_PLACEMENT_3D ( 'NONE', #110, #109, #108 ) ;
#112 = SPHERICAL_SURFACE ( 'NONE', #111, 10.87899999999996600 ) ;
#113 = FACE_OUTER_BOUND ( 'NONE', #36, .T. ) ;
#114 = DIRECTION ( 'NONE',  ( 0.0000000000000000000, -1.836909530733565600E-016, 1.000000000000000000 ) ) ;
#115 = VECTOR ( 'NONE', #114, 1000.000000000000000 ) ;
#116 = CARTESIAN_POINT ( 'NONE',  ( 7.776250346772099300E-016, 6.350000000000005000, 0.5455329003839215500 ) ) ;
#117 = CARTESIAN_POINT ( 'NONE',  ( 0.0000000000000000000, -6.350000000000003200, 0.5455329003839186600 ) ) ;
#118 = DIRECTION ( 'NONE',  ( 1.224606353822377300E-016, 1.000000000000000000, 0.0000000000000000000 ) ) ;
#119 = DIRECTION ( 'NONE',  ( 1.000000000000000000, -1.224606353822377300E-016, -2.249491082733205900E-032 ) ) ;
#120 = AXIS2_PLACEMENT_3D ( 'NONE', #100, #119, #118 ) ;
#121 = CIRCLE ( 'NONE', #120, 10.87899999999996600 ) ;
#122 = DIRECTION ( 'NONE',  ( 0.0000000000000000000, 1.000000000000000000, 1.532035216794852200E-016 ) ) ;
#123 = DIRECTION ( 'NONE',  ( -1.000000000000000000, 0.0000000000000000000, 0.0000000000000000000 ) ) ;
#124 = CARTESIAN_POINT ( 'NONE',  ( 0.0000000000000000000, 0.0000000000000000000, 12.82299999999997400 ) ) ;
#125 = AXIS2_PLACEMENT_3D ( 'NONE', #124, #123, #122 ) ;
#126 = ADVANCED_BREP_SHAPE_REPRESENTATION ( '20224-E0W', ( #38, #205 ), #127 ) ;
#127 =( GEOMETRIC_REPRESENTATION_CONTEXT ( 3 ) GLOBAL_UNCERTAINTY_ASSIGNED_CONTEXT ( ( #151 ) ) GLOBAL_UNIT_ASSIGNED_CONTEXT ( ( #157, #160, #210 ) ) REPRESENTATION_CONTEXT ( 'NONE', 'WORKASPACE' ) );
#128 = DIRECTION ( 'NONE',  ( 0.0000000000000000000, -1.000000000000000000, -2.048885995248196900E-016 ) ) ;
#129 = DIRECTION ( 'NONE',  ( 0.0000000000000000000, 1.000000000000000000, 1.532035216794852200E-016 ) ) ;
#130 = DIRECTION ( 'NONE',  ( -1.000000000000000000, 0.0000000000000000000, 0.0000000000000000000 ) ) ;
#131 = APPLICATION_PROTOCOL_DEFINITION ( 'international standard', 'config_control_design', 1994, #132 ) ;
#132 = APPLICATION_CONTEXT ( 'configuration controlled 3d designs of mechanical parts and assemblies' ) ;
#133 = CC_DESIGN_PERSON_AND_ORGANIZATION_ASSIGNMENT ( #135, #134, ( #152 ) ) ;
#134 = PERSON_AND_ORGANIZATION_ROLE ( 'design_owner' ) ;
#135 = PERSON_AND_ORGANIZATION ( #213, #224 ) ;
#136 = PERSON_AND_ORGANIZATION_ROLE ( 'creator' ) ;
#137 = PERSON_AND_ORGANIZATION ( #213, #224 ) ;
#138 = CC_DESIGN_APPROVAL ( #146, ( #149 ) ) ;
#139 = APPROVAL_DATE_TIME ( #140, #146 ) ;
#140 = DATE_AND_TIME ( #141, #142 ) ;
#141 = CALENDAR_DATE ( 2009, 14, 9 ) ;
#142 = LOCAL_TIME ( 16, 10, 42.00000000000000000, #143 ) ;
#143 = COORDINATED_UNIVERSAL_TIME_OFFSET ( 5, 0, .BEHIND. ) ;
#144 = APPROVAL_PERSON_ORGANIZATION ( #148, #146, #145 ) ;
#145 = APPROVAL_ROLE ( '' ) ;
#146 = APPROVAL ( #147, 'UNSPECIFIED' ) ;
#147 = APPROVAL_STATUS ( 'not_yet_approved' ) ;
#148 = PERSON_AND_ORGANIZATION ( #213, #224 ) ;
#149 = PRODUCT_DEFINITION ( 'UNKNOWN', '', #196, #150 ) ;
#150 = DESIGN_CONTEXT ( 'detailed design', #132, 'design' ) ;
#151 = UNCERTAINTY_MEASURE_WITH_UNIT (LENGTH_MEASURE( 1.000000000000000100E-005 ), #157, 'distance_accuracy_value', 'NONE');
#152 = PRODUCT ( '20224-E0W', '20224-E0W', '', ( #153 ) ) ;
#153 = MECHANICAL_CONTEXT ( 'NONE', #155, 'mechanical' ) ;
#154 = APPLICATION_PROTOCOL_DEFINITION ( 'international standard', 'config_control_design', 1994, #155 ) ;
#155 = APPLICATION_CONTEXT ( 'configuration controlled 3d designs of mechanical parts and assemblies' ) ;
#156 = CIRCLE ( 'NONE', #194, 6.350000000000001400 ) ;
#157 =( LENGTH_UNIT ( ) NAMED_UNIT ( * ) SI_UNIT ( .MILLI., .METRE. ) );
#158 = DIRECTION ( 'NONE',  ( 0.0000000000000000000, 0.0000000000000000000, 1.000000000000000000 ) ) ;
#159 = DIRECTION ( 'NONE',  ( -1.000000000000000000, 0.0000000000000000000, 0.0000000000000000000 ) ) ;
#160 =( NAMED_UNIT ( * ) PLANE_ANGLE_UNIT ( ) SI_UNIT ( $, .RADIAN. ) );
#161 = SPHERICAL_SURFACE ( 'NONE', #209, 11.32299999999997400 ) ;
#162 = CC_DESIGN_APPROVAL ( #170, ( #218 ) ) ;
#163 = APPROVAL_DATE_TIME ( #164, #170 ) ;
#164 = DATE_AND_TIME ( #165, #166 ) ;
#165 = CALENDAR_DATE ( 2009, 14, 9 ) ;
#166 = LOCAL_TIME ( 16, 10, 42.00000000000000000, #167 ) ;
#167 = COORDINATED_UNIVERSAL_TIME_OFFSET ( 5, 0, .BEHIND. ) ;
#168 = APPROVAL_PERSON_ORGANIZATION ( #172, #170, #169 ) ;
#169 = APPROVAL_ROLE ( '' ) ;
#170 = APPROVAL ( #171, 'UNSPECIFIED' ) ;
#171 = APPROVAL_STATUS ( 'not_yet_approved' ) ;
#172 = PERSON_AND_ORGANIZATION ( #213, #224 ) ;
#173 = CC_DESIGN_DATE_AND_TIME_ASSIGNMENT ( #175, #174, ( #218 ) ) ;
#174 = DATE_TIME_ROLE ( 'classification_date' ) ;
#175 = DATE_AND_TIME ( #176, #177 ) ;
#176 = CALENDAR_DATE ( 2009, 14, 9 ) ;
#177 = LOCAL_TIME ( 16, 10, 42.00000000000000000, #178 ) ;
#178 = COORDINATED_UNIVERSAL_TIME_OFFSET ( 5, 0, .BEHIND. ) ;
#179 = PERSON_AND_ORGANIZATION_ROLE ( 'creator' ) ;
#180 = PERSON_AND_ORGANIZATION ( #213, #224 ) ;
#181 = CC_DESIGN_APPROVAL ( #189, ( #196 ) ) ;
#182 = APPROVAL_DATE_TIME ( #183, #189 ) ;
#183 = DATE_AND_TIME ( #184, #185 ) ;
#184 = CALENDAR_DATE ( 2009, 14, 9 ) ;
#185 = LOCAL_TIME ( 16, 10, 42.00000000000000000, #186 ) ;
#186 = COORDINATED_UNIVERSAL_TIME_OFFSET ( 5, 0, .BEHIND. ) ;
#187 = APPROVAL_PERSON_ORGANIZATION ( #191, #189, #188 ) ;
#188 = APPROVAL_ROLE ( '' ) ;
#189 = APPROVAL ( #190, 'UNSPECIFIED' ) ;
#190 = APPROVAL_STATUS ( 'not_yet_approved' ) ;
#191 = PERSON_AND_ORGANIZATION ( #213, #224 ) ;
#192 = DIRECTION ( 'NONE',  ( 0.0000000000000000000, -1.836909530733565600E-016, 1.000000000000000000 ) ) ;
#193 = CARTESIAN_POINT ( 'NONE',  ( 0.0000000000000000000, -3.578573687996755000E-016, 3.448149121185984300 ) ) ;
#194 = AXIS2_PLACEMENT_3D ( 'NONE', #193, #192, #128 ) ;
#195 = CARTESIAN_POINT ( 'NONE',  ( 0.0000000000000000000, 0.0000000000000000000, 9.378999999999971100 ) ) ;
#196 = PRODUCT_DEFINITION_FORMATION_WITH_SPECIFIED_SOURCE ( 'ANY', '', #152, .NOT_KNOWN. ) ;
#197 = CC_DESIGN_DATE_AND_TIME_ASSIGNMENT ( #199, #198, ( #149 ) ) ;
#198 = DATE_TIME_ROLE ( 'creation_date' ) ;
#199 = DATE_AND_TIME ( #200, #201 ) ;
#200 = CALENDAR_DATE ( 2009, 14, 9 ) ;
#201 = LOCAL_TIME ( 16, 10, 42.00000000000000000, #202 ) ;
#202 = COORDINATED_UNIVERSAL_TIME_OFFSET ( 5, 0, .BEHIND. ) ;
#203 = CC_DESIGN_PERSON_AND_ORGANIZATION_ASSIGNMENT ( #137, #136, ( #149 ) ) ;
#204 = DIRECTION ( 'NONE',  ( 1.000000000000000000, 0.0000000000000000000, 0.0000000000000000000 ) ) ;
#205 = AXIS2_PLACEMENT_3D ( 'NONE', #206, #225, #204 ) ;
#206 = CARTESIAN_POINT ( 'NONE',  ( 0.0000000000000000000, 0.0000000000000000000, 0.0000000000000000000 ) ) ;
#207 = FACE_OUTER_BOUND ( 'NONE', #55, .T. ) ;
#208 = CARTESIAN_POINT ( 'NONE',  ( 0.0000000000000000000, 0.0000000000000000000, 12.82299999999997400 ) ) ;
#209 = AXIS2_PLACEMENT_3D ( 'NONE', #208, #130, #129 ) ;
#210 =( NAMED_UNIT ( * ) SI_UNIT ( $, .STERADIAN. ) SOLID_ANGLE_UNIT ( ) );
#211 = AXIS2_PLACEMENT_3D ( 'NONE', #195, #159, #158 ) ;
#212 = CARTESIAN_POINT ( 'NONE',  ( 0.0000000000000000000, 1.332249252323359700E-015, -1.499999999999994400 ) ) ;
#213 = PERSON ( 'UNSPECIFIED', 'UNSPECIFIED', 'UNSPECIFIED', ('UNSPECIFIED'), ('UNSPECIFIED'), ('UNSPECIFIED') ) ;
#214 = CIRCLE ( 'NONE', #211, 10.87899999999996600 ) ;
#215 = CC_DESIGN_PERSON_AND_ORGANIZATION_ASSIGNMENT ( #217, #216, ( #218 ) ) ;
#216 = PERSON_AND_ORGANIZATION_ROLE ( 'classification_officer' ) ;
#217 = PERSON_AND_ORGANIZATION ( #213, #224 ) ;
#218 = SECURITY_CLASSIFICATION ( '', '', #219 ) ;
#219 = SECURITY_CLASSIFICATION_LEVEL ( 'unclassified' ) ;
#220 = CC_DESIGN_PERSON_AND_ORGANIZATION_ASSIGNMENT ( #222, #221, ( #196 ) ) ;
#221 = PERSON_AND_ORGANIZATION_ROLE ( 'design_supplier' ) ;
#222 = PERSON_AND_ORGANIZATION ( #213, #224 ) ;
#223 = CC_DESIGN_PERSON_AND_ORGANIZATION_ASSIGNMENT ( #180, #179, ( #196 ) ) ;
#224 = ORGANIZATION ( 'UNSPECIFIED', 'UNSPECIFIED', '' ) ;
#225 = DIRECTION ( 'NONE',  ( 0.0000000000000000000, 0.0000000000000000000, 1.000000000000000000 ) ) ;
#226 = SHAPE_DEFINITION_REPRESENTATION ( #227, #126 ) ;
#227 = PRODUCT_DEFINITION_SHAPE ( 'NONE', 'NONE',  #149 ) ;
ENDSEC;
END-ISO-10303-21;
