ISO-10303-21;
HEADER;
FILE_DESCRIPTION (( 'STEP AP203' ),
    '1' );
FILE_NAME ('TTN023914-E0W.STEP',
    '2014-04-22T14:51:47',
    ( 'admin' ),
    ( '' ),
    'SwSTEP 2.0',
    'SolidWorks 2012',
    '' );
FILE_SCHEMA (( 'CONFIG_CONTROL_DESIGN' ));
ENDSEC;

DATA;
#1 = LENGTH_MEASURE_WITH_UNIT ( LENGTH_MEASURE( 0.02539999999999999900 ), #86 );
#2 = DESIGN_CONTEXT ( 'detailed design', #95, 'design' ) ;
#3 = PRODUCT_DEFINITION_SHAPE ( 'NONE', 'NONE',  #300 ) ;
#4 = CARTESIAN_POINT ( 'NONE',  ( 6.123233995736766000E-017, -0.4999999999999999400, -0.07086614173227710800 ) ) ;
#5 = CARTESIAN_POINT ( 'NONE',  ( 0.0000000000000000000, 3.365256830582753600E-017, -0.07874015748031496000 ) ) ;
#6 = CARTESIAN_POINT ( 'NONE',  ( 0.0000000000000000000, 8.135636163877853000E-016, 0.04939870217358086800 ) ) ;
#7 = DIRECTION ( 'NONE',  ( 0.0000000000000000000, 6.349078012596855700E-015, 1.000000000000000000 ) ) ;
#8 = DIRECTION ( 'NONE',  ( 0.0000000000000000000, -1.000000000000000000, 6.351546585269412000E-015 ) ) ;
#9 = CARTESIAN_POINT ( 'NONE',  ( 0.0000000000000000000, -0.4921259842519685200, -0.07874015748030871500 ) ) ;
#10 = DIRECTION ( 'NONE',  ( 0.0000000000000000000, 1.000000000000000000, -6.349087922075125000E-015 ) ) ;
#11 = DIRECTION ( 'NONE',  ( 0.0000000000000000000, 1.000000000000000000, 3.073328992872295900E-016 ) ) ;
#12 = DIRECTION ( 'NONE',  ( -0.0000000000000000000, 3.061515884555943100E-016, -1.000000000000000000 ) ) ;
#13 = DIRECTION ( 'NONE',  ( 0.0000000000000000000, 1.000000000000000000, 3.073328992872295900E-016 ) ) ;
#14 = CARTESIAN_POINT ( 'NONE',  ( 0.0000000000000000000, 4.926388867463393100E-016, -4.062992125984259000 ) ) ;
#15 = CARTESIAN_POINT ( 'NONE',  ( 0.0000000000000000000, 4.999274025668931100E-017, -0.07086614173228028600 ) ) ;
#16 = DIRECTION ( 'NONE',  ( -0.0000000000000000000, -6.349078012596855700E-015, -1.000000000000000000 ) ) ;
#17 = DIRECTION ( 'NONE',  ( 1.000000000000000000, 0.0000000000000000000, -0.0000000000000000000 ) ) ;
#18 = DIRECTION ( 'NONE',  ( 0.0000000000000000000, 1.000000000000000000, 2.638362701105406100E-016 ) ) ;
#19 = DIRECTION ( 'NONE',  ( -0.0000000000000000000, 3.061515884555943100E-016, -1.000000000000000000 ) ) ;
#20 = DIRECTION ( 'NONE',  ( 0.0000000000000000000, 6.349078012596855700E-015, 1.000000000000000000 ) ) ;
#21 = CARTESIAN_POINT ( 'NONE',  ( 0.0000000000000000000, 3.365256830582755500E-017, -0.07874015748031502900 ) ) ;
#22 = CARTESIAN_POINT ( 'NONE',  ( 0.0000000000000000000, 4.999274025668931100E-017, -0.07086614173228028600 ) ) ;
#23 = DIRECTION ( 'NONE',  ( 0.0000000000000000000, -1.000000000000000000, 6.351546585269412000E-015 ) ) ;
#24 = PLANE ( 'NONE',  #302 ) ;
#25 = DIRECTION ( 'NONE',  ( 0.0000000000000000000, 1.000000000000000000, -6.349087922075125000E-015 ) ) ;
#26 = DIRECTION ( 'NONE',  ( 1.000000000000000000, 0.0000000000000000000, -0.0000000000000000000 ) ) ;
#27 = DIRECTION ( 'NONE',  ( -0.0000000000000000000, 3.061515884555943100E-016, -1.000000000000000000 ) ) ;
#28 = DIRECTION ( 'NONE',  ( 0.0000000000000000000, 1.000000000000000000, 3.061515884555943100E-016 ) ) ;
#29 = DIRECTION ( 'NONE',  ( -0.0000000000000000000, -6.349078012596855700E-015, -1.000000000000000000 ) ) ;
#30 = CARTESIAN_POINT ( 'NONE',  ( 0.0000000000000000000, 8.135636163877853000E-016, 0.04939870217358086800 ) ) ;
#31 = CARTESIAN_POINT ( 'NONE',  ( 0.0000000000000000000, 4.926388867463393100E-016, -4.062992125984259000 ) ) ;
#32 = CARTESIAN_POINT ( 'NONE',  ( 0.0000000000000000000, 0.4921259842519684600, 0.04939870217357774500 ) ) ;
#33 = CARTESIAN_POINT ( 'NONE',  ( 6.123233995736757400E-017, -0.4999999999999985000, 0.04152468642555259100 ) ) ;
#34 = DIRECTION ( 'NONE',  ( 0.0000000000000000000, 1.000000000000000000, 2.638362701105406100E-016 ) ) ;
#35 = CARTESIAN_POINT ( 'NONE',  ( 0.0000000000000000000, 0.5000000000000000000, 0.04152468642554624200 ) ) ;
#36 = CARTESIAN_POINT ( 'NONE',  ( 6.075019554825443700E-017, -0.4921259842519668500, 0.04939870217358399000 ) ) ;
#37 = CARTESIAN_POINT ( 'NONE',  ( 0.0000000000000000000, 0.5000000000000001100, -0.07086614173228346400 ) ) ;
#38 = CARTESIAN_POINT ( 'NONE',  ( 0.0000000000000000000, -5.217510716006481300E-016, 0.07874015748031394600 ) ) ;
#39 = CARTESIAN_POINT ( 'NONE',  ( 6.075019554825453600E-017, 0.4921259842519685200, -0.07874015748031496000 ) ) ;
#40 = DIRECTION ( 'NONE',  ( 0.0000000000000000000, 0.7071067811865492400, -0.7071067811865459100 ) ) ;
#41 = CARTESIAN_POINT ( 'NONE',  ( 0.0000000000000000000, 0.4921259842519684600, 0.04939870217357774500 ) ) ;
#42 = CARTESIAN_POINT ( 'NONE',  ( 0.0000000000000000000, 7.635708761311175200E-016, 0.04152468642554942000 ) ) ;
#43 = DIRECTION ( 'NONE',  ( -0.0000000000000000000, -6.349078012596855700E-015, -1.000000000000000000 ) ) ;
#44 = DIRECTION ( 'NONE',  ( 0.0000000000000000000, 1.000000000000000000, -6.351546585269422300E-015 ) ) ;
#45 = CARTESIAN_POINT ( 'NONE',  ( 0.0000000000000000000, 4.926388867463393100E-016, -4.062992125984259000 ) ) ;
#46 = DIRECTION ( 'NONE',  ( 1.000000000000000000, 1.224646799147353200E-016, 3.749275628560213600E-032 ) ) ;
#47 = DIRECTION ( 'NONE',  ( -1.224646799147353200E-016, 1.000000000000000000, 0.0000000000000000000 ) ) ;
#48 = PRODUCT ( 'TTN023914-E0W', 'TTN023914-E0W', '', ( #93 ) ) ;
#49 = PERSON ( 'UNSPECIFIED', 'UNSPECIFIED', 'UNSPECIFIED', ('UNSPECIFIED'), ('UNSPECIFIED'), ('UNSPECIFIED') ) ;
#50 = CARTESIAN_POINT ( 'NONE',  ( 0.0000000000000000000, 2.081362827377343900E-029, -0.07874015748031183700 ) ) ;
#51 = DIRECTION ( 'NONE',  ( -0.0000000000000000000, -6.349078012596855700E-015, -1.000000000000000000 ) ) ;
#52 = DIRECTION ( 'NONE',  ( 0.0000000000000000000, 1.000000000000000000, -6.349087922075114000E-015 ) ) ;
#53 = CARTESIAN_POINT ( 'NONE',  ( 6.123233995736766000E-017, 0.5000000000000001100, -0.07086614173228346400 ) ) ;
#54 = CARTESIAN_POINT ( 'NONE',  ( 0.0000000000000000000, -0.4999999999999999400, -0.07086614173227710800 ) ) ;
#55 = DIRECTION ( 'NONE',  ( 8.659560562354876200E-017, 0.7071067811865473500, 0.7071067811865476800 ) ) ;
#56 = CARTESIAN_POINT ( 'NONE',  ( 0.0000000000000000000, 4.999274025668931100E-017, -0.07086614173228028600 ) ) ;
#57 = DIRECTION ( 'NONE',  ( -0.0000000000000000000, -6.349078012596855700E-015, -1.000000000000000000 ) ) ;
#58 = DIRECTION ( 'NONE',  ( 0.0000000000000000000, 1.000000000000000000, -6.351546585269412000E-015 ) ) ;
#59 = CARTESIAN_POINT ( 'NONE',  ( 6.123233995736767300E-017, -0.5000000000000001100, -0.07874015748031511200 ) ) ;
#60 = DIRECTION ( 'NONE',  ( 0.0000000000000000000, -0.7071067811865384700, 0.7071067811865565700 ) ) ;
#61 = DIRECTION ( 'NONE',  ( -0.0000000000000000000, 3.061515884555943100E-016, -1.000000000000000000 ) ) ;
#62 = CARTESIAN_POINT ( 'NONE',  ( 0.0000000000000000000, 0.5000000000000001100, -0.07874015748031480700 ) ) ;
#63 = DIRECTION ( 'NONE',  ( -0.0000000000000000000, 3.061515884555943100E-016, -1.000000000000000000 ) ) ;
#64 = CARTESIAN_POINT ( 'NONE',  ( 0.0000000000000000000, 7.635708761311175200E-016, 0.04152468642554942000 ) ) ;
#65 = DIRECTION ( 'NONE',  ( -0.0000000000000000000, -6.349078012596855700E-015, -1.000000000000000000 ) ) ;
#66 = DIRECTION ( 'NONE',  ( 0.0000000000000000000, 1.000000000000000000, -6.351546585269422300E-015 ) ) ;
#67 = CARTESIAN_POINT ( 'NONE',  ( 0.0000000000000000000, 4.999274025668931100E-017, -0.07086614173228028600 ) ) ;
#68 = DIRECTION ( 'NONE',  ( -0.0000000000000000000, -6.349078012596855700E-015, -1.000000000000000000 ) ) ;
#69 = DIRECTION ( 'NONE',  ( 0.0000000000000000000, 1.000000000000000000, -6.351546585269412000E-015 ) ) ;
#70 = CARTESIAN_POINT ( 'NONE',  ( 6.026805113914130000E-017, -0.4921259842519668500, 0.04939870217358399000 ) ) ;
#71 = DIRECTION ( 'NONE',  ( 8.659560562355006800E-017, -0.7071067811865580100, -0.7071067811865369100 ) ) ;
#72 = CARTESIAN_POINT ( 'NONE',  ( 0.0000000000000000000, 2.081362827377343900E-029, -0.07874015748031183700 ) ) ;
#73 = DIRECTION ( 'NONE',  ( -0.0000000000000000000, -6.349078012596855700E-015, -1.000000000000000000 ) ) ;
#74 = DIRECTION ( 'NONE',  ( 0.0000000000000000000, 1.000000000000000000, -6.349087922075114000E-015 ) ) ;
#75 = CARTESIAN_POINT ( 'NONE',  ( 0.0000000000000000000, 8.135636163877853000E-016, 0.04939870217358086800 ) ) ;
#76 = DIRECTION ( 'NONE',  ( -0.0000000000000000000, -6.349078012596855700E-015, -1.000000000000000000 ) ) ;
#77 = DIRECTION ( 'NONE',  ( 0.0000000000000000000, 1.000000000000000000, -6.349087922075125000E-015 ) ) ;
#78 = DIRECTION ( 'NONE',  ( 0.0000000000000000000, 0.0000000000000000000, 1.000000000000000000 ) ) ;
#79 = CARTESIAN_POINT ( 'NONE',  ( 0.0000000000000000000, 8.135636163877853000E-016, 0.04939870217358086800 ) ) ;
#80 = DIRECTION ( 'NONE',  ( -0.0000000000000000000, -6.349078012596855700E-015, -1.000000000000000000 ) ) ;
#81 = DIRECTION ( 'NONE',  ( 0.0000000000000000000, 1.000000000000000000, -6.349087922075125000E-015 ) ) ;
#82 = CARTESIAN_POINT ( 'NONE',  ( 0.0000000000000000000, 0.0000000000000000000, 0.0000000000000000000 ) ) ;
#83 = CARTESIAN_POINT ( 'NONE',  ( 0.0000000000000000000, 4.926388867463393100E-016, -4.062992125984259000 ) ) ;
#84 = DIRECTION ( 'NONE',  ( -1.000000000000000000, 0.0000000000000000000, 0.0000000000000000000 ) ) ;
#85 = DIRECTION ( 'NONE',  ( 0.0000000000000000000, 0.0000000000000000000, 1.000000000000000000 ) ) ;
#86 =( LENGTH_UNIT ( ) NAMED_UNIT ( * ) SI_UNIT ( $, .METRE. ) );
#87 =( CONVERSION_BASED_UNIT ( 'INCH', #1 ) LENGTH_UNIT ( ) NAMED_UNIT ( #190 ) );
#88 =( NAMED_UNIT ( * ) PLANE_ANGLE_UNIT ( ) SI_UNIT ( $, .RADIAN. ) );
#89 =( NAMED_UNIT ( * ) SI_UNIT ( $, .STERADIAN. ) SOLID_ANGLE_UNIT ( ) );
#90 = APPLICATION_PROTOCOL_DEFINITION ( 'international standard', 'config_control_design', 1994, #91 ) ;
#91 = APPLICATION_CONTEXT ( 'configuration controlled 3d designs of mechanical parts and assemblies' ) ;
#92 = DIRECTION ( 'NONE',  ( 1.000000000000000000, 0.0000000000000000000, 0.0000000000000000000 ) ) ;
#93 = MECHANICAL_CONTEXT ( 'NONE', #91, 'mechanical' ) ;
#94 = PERSON_AND_ORGANIZATION_ROLE ( 'design_owner' ) ;
#95 = APPLICATION_CONTEXT ( 'configuration controlled 3d designs of mechanical parts and assemblies' ) ;
#96 = APPLICATION_PROTOCOL_DEFINITION ( 'international standard', 'config_control_design', 1994, #95 ) ;
#97 = APPROVAL_STATUS ( 'not_yet_approved' ) ;
#98 = APPROVAL_ROLE ( '' ) ;
#99 = PERSON_AND_ORGANIZATION_ROLE ( 'creator' ) ;
#100 = DATE_TIME_ROLE ( 'creation_date' ) ;
#101 = APPROVAL_STATUS ( 'not_yet_approved' ) ;
#102 = APPROVAL_ROLE ( '' ) ;
#103 = PERSON_AND_ORGANIZATION_ROLE ( 'creator' ) ;
#104 = PERSON_AND_ORGANIZATION_ROLE ( 'design_supplier' ) ;
#105 = SECURITY_CLASSIFICATION_LEVEL ( 'unclassified' ) ;
#106 = PERSON_AND_ORGANIZATION_ROLE ( 'classification_officer' ) ;
#107 = DATE_TIME_ROLE ( 'classification_date' ) ;
#108 = APPROVAL_STATUS ( 'not_yet_approved' ) ;
#109 = APPROVAL_ROLE ( '' ) ;
#110 = LINE ( 'NONE', #53, #112 ) ;
#111 = CIRCLE ( 'NONE', #303, 0.4999999999999992200 ) ;
#112 = VECTOR ( 'NONE', #55, 39.37007874015748100 ) ;
#113 = CIRCLE ( 'NONE', #299, 4.141732283464572900 ) ;
#114 = CIRCLE ( 'NONE', #287, 0.5000000000000000000 ) ;
#115 = LINE ( 'NONE', #41, #116 ) ;
#116 = VECTOR ( 'NONE', #40, 39.37007874015748100 ) ;
#117 = CIRCLE ( 'NONE', #296, 0.4921259842519685200 ) ;
#118 = LINE ( 'NONE', #70, #121 ) ;
#119 = SPHERICAL_SURFACE ( 'NONE', #293, 4.141732283464572900 ) ;
#120 = CONICAL_SURFACE ( 'NONE', #280, 0.5000000000000000000, 0.7853981633974418400 ) ;
#121 = VECTOR ( 'NONE', #71, 39.37007874015748900 ) ;
#122 = FACE_OUTER_BOUND ( 'NONE', #216, .T. ) ;
#123 = CIRCLE ( 'NONE', #288, 0.4921259842519676300 ) ;
#124 = FACE_OUTER_BOUND ( 'NONE', #220, .T. ) ;
#125 = CONICAL_SURFACE ( 'NONE', #266, 0.4921259842519676300, 0.7853981633974569400 ) ;
#126 = FACE_OUTER_BOUND ( 'NONE', #232, .T. ) ;
#127 = CONICAL_SURFACE ( 'NONE', #268, 0.5000000000000000000, 0.7853981633974418400 ) ;
#128 = CYLINDRICAL_SURFACE ( 'NONE', #267, 0.5000000000000001100 ) ;
#129 = CALENDAR_DATE ( 2014, 22, 4 ) ;
#130 = LOCAL_TIME ( 10, 51, 47.00000000000000000, #150 ) ;
#131 = DATE_AND_TIME ( #137, #153 ) ;
#132 = CALENDAR_DATE ( 2014, 22, 4 ) ;
#133 = PERSON_AND_ORGANIZATION ( #49, #238 ) ;
#134 = APPROVAL_PERSON_ORGANIZATION ( #136, #242, #102 ) ;
#135 = COORDINATED_UNIVERSAL_TIME_OFFSET ( 5, 0, .BEHIND. ) ;
#136 = PERSON_AND_ORGANIZATION ( #49, #238 ) ;
#137 = CALENDAR_DATE ( 2014, 22, 4 ) ;
#138 = LOCAL_TIME ( 10, 51, 47.00000000000000000, #149 ) ;
#139 = APPROVAL_DATE_TIME ( #146, #294 ) ;
#140 = APPROVAL_PERSON_ORGANIZATION ( #148, #212, #109 ) ;
#141 = DATE_AND_TIME ( #132, #130 ) ;
#142 = APPROVAL_DATE_TIME ( #152, #242 ) ;
#143 = CALENDAR_DATE ( 2014, 22, 4 ) ;
#144 = PERSON_AND_ORGANIZATION ( #49, #238 ) ;
#145 = LOCAL_TIME ( 10, 51, 47.00000000000000000, #147 ) ;
#146 = DATE_AND_TIME ( #143, #138 ) ;
#147 = COORDINATED_UNIVERSAL_TIME_OFFSET ( 5, 0, .BEHIND. ) ;
#148 = PERSON_AND_ORGANIZATION ( #49, #238 ) ;
#149 = COORDINATED_UNIVERSAL_TIME_OFFSET ( 5, 0, .BEHIND. ) ;
#150 = COORDINATED_UNIVERSAL_TIME_OFFSET ( 5, 0, .BEHIND. ) ;
#151 = PERSON_AND_ORGANIZATION ( #49, #238 ) ;
#152 = DATE_AND_TIME ( #129, #145 ) ;
#153 = LOCAL_TIME ( 10, 51, 47.00000000000000000, #135 ) ;
#154 = PERSON_AND_ORGANIZATION ( #49, #238 ) ;
#155 = DATE_AND_TIME ( #156, #159 ) ;
#156 = CALENDAR_DATE ( 2014, 22, 4 ) ;
#157 = COORDINATED_UNIVERSAL_TIME_OFFSET ( 5, 0, .BEHIND. ) ;
#158 = APPROVAL_DATE_TIME ( #155, #212 ) ;
#159 = LOCAL_TIME ( 10, 51, 47.00000000000000000, #157 ) ;
#160 = VECTOR ( 'NONE', #63, 39.37007874015748100 ) ;
#161 = LINE ( 'NONE', #54, #165 ) ;
#162 = LINE ( 'NONE', #62, #160 ) ;
#163 = VECTOR ( 'NONE', #61, 39.37007874015748100 ) ;
#164 = LINE ( 'NONE', #59, #163 ) ;
#165 = VECTOR ( 'NONE', #60, 39.37007874015748100 ) ;
#166 = ORIENTED_EDGE ( 'NONE', *, *, #262, .T. ) ;
#167 = ORIENTED_EDGE ( 'NONE', *, *, #262, .F. ) ;
#168 = ORIENTED_EDGE ( 'NONE', *, *, #272, .T. ) ;
#169 = ORIENTED_EDGE ( 'NONE', *, *, #276, .F. ) ;
#170 = ORIENTED_EDGE ( 'NONE', *, *, #282, .T. ) ;
#171 = ORIENTED_EDGE ( 'NONE', *, *, #273, .T. ) ;
#172 = ORIENTED_EDGE ( 'NONE', *, *, #275, .T. ) ;
#173 = ORIENTED_EDGE ( 'NONE', *, *, #263, .F. ) ;
#174 = ORIENTED_EDGE ( 'NONE', *, *, #274, .F. ) ;
#175 = VERTEX_POINT ( 'NONE', #4 ) ;
#176 = ORIENTED_EDGE ( 'NONE', *, *, #283, .T. ) ;
#177 = ORIENTED_EDGE ( 'NONE', *, *, #273, .F. ) ;
#178 = ORIENTED_EDGE ( 'NONE', *, *, #271, .F. ) ;
#179 = VERTEX_POINT ( 'NONE', #9 ) ;
#180 = ORIENTED_EDGE ( 'NONE', *, *, #275, .F. ) ;
#181 = ADVANCED_FACE ( 'NONE', ( #227 ), #203, .T. ) ;
#182 = ADVANCED_FACE ( 'NONE', ( #224 ), #195, .T. ) ;
#183 = ADVANCED_FACE ( 'NONE', ( #204 ), #127, .T. ) ;
#184 = ADVANCED_FACE ( 'NONE', ( #198 ), #194, .T. ) ;
#185 = ADVANCED_FACE ( 'NONE', ( #122 ), #128, .T. ) ;
#186 = ADVANCED_FACE ( 'NONE', ( #202 ), #120, .T. ) ;
#187 = ADVANCED_FACE ( 'NONE', ( #206 ), #24, .T. ) ;
#188 = ADVANCED_FACE ( 'NONE', ( #124 ), #125, .T. ) ;
#189 = ADVANCED_FACE ( 'NONE', ( #126 ), #119, .T. ) ;
#190 = DIMENSIONAL_EXPONENTS ( 1.000000000000000000, 0.0000000000000000000, 0.0000000000000000000, 0.0000000000000000000, 0.0000000000000000000, 0.0000000000000000000, 0.0000000000000000000 ) ;
#191 = CIRCLE ( 'NONE', #298, 0.4921259842519685200 ) ;
#192 = CIRCLE ( 'NONE', #304, 0.4999999999999992200 ) ;
#193 = CIRCLE ( 'NONE', #291, 0.5000000000000000000 ) ;
#194 = SPHERICAL_SURFACE ( 'NONE', #264, 4.141732283464572900 ) ;
#195 = CYLINDRICAL_SURFACE ( 'NONE', #265, 0.5000000000000001100 ) ;
#196 = ORIENTED_EDGE ( 'NONE', *, *, #284, .F. ) ;
#197 = ORIENTED_EDGE ( 'NONE', *, *, #270, .T. ) ;
#198 = FACE_OUTER_BOUND ( 'NONE', #231, .T. ) ;
#199 = ORIENTED_EDGE ( 'NONE', *, *, #284, .T. ) ;
#200 = ORIENTED_EDGE ( 'NONE', *, *, #281, .F. ) ;
#201 = ORIENTED_EDGE ( 'NONE', *, *, #270, .F. ) ;
#202 = FACE_OUTER_BOUND ( 'NONE', #214, .T. ) ;
#203 = CONICAL_SURFACE ( 'NONE', #269, 0.4921259842519676300, 0.7853981633974569400 ) ;
#204 = FACE_OUTER_BOUND ( 'NONE', #221, .T. ) ;
#205 = CLOSED_SHELL ( 'NONE', ( #184, #181, #183, #182, #185, #186, #187, #188, #189 ) ) ;
#206 = FACE_OUTER_BOUND ( 'NONE', #222, .T. ) ;
#207 = CIRCLE ( 'NONE', #286, 0.4921259842519676300 ) ;
#208 = CIRCLE ( 'NONE', #290, 4.141732283464572900 ) ;
#209 = CC_DESIGN_SECURITY_CLASSIFICATION ( #247, ( #245 ) ) ;
#210 = CC_DESIGN_DATE_AND_TIME_ASSIGNMENT ( #141, #107, ( #247 ) ) ;
#211 = CC_DESIGN_APPROVAL ( #212, ( #247 ) ) ;
#212 = APPROVAL ( #108, 'UNSPECIFIED' ) ;
#213 = PRODUCT_RELATED_PRODUCT_CATEGORY ( 'detail', '', ( #48 ) ) ;
#214 = EDGE_LOOP ( 'NONE', ( #258, #260, #255, #249 ) ) ;
#215 = VERTEX_POINT ( 'NONE', #33 ) ;
#216 = EDGE_LOOP ( 'NONE', ( #180, #256, #250, #257 ) ) ;
#217 = EDGE_LOOP ( 'NONE', ( #166, #172, #177, #169 ) ) ;
#218 = VERTEX_POINT ( 'NONE', #35 ) ;
#219 = VERTEX_POINT ( 'NONE', #32 ) ;
#220 = EDGE_LOOP ( 'NONE', ( #252, #261, #254, #259 ) ) ;
#221 = EDGE_LOOP ( 'NONE', ( #178, #168, #171, #174 ) ) ;
#222 = EDGE_LOOP ( 'NONE', ( #251, #253 ) ) ;
#223 = VERTEX_POINT ( 'NONE', #36 ) ;
#224 = FACE_OUTER_BOUND ( 'NONE', #217, .T. ) ;
#225 = VERTEX_POINT ( 'NONE', #38 ) ;
#226 = VERTEX_POINT ( 'NONE', #37 ) ;
#227 = FACE_OUTER_BOUND ( 'NONE', #228, .T. ) ;
#228 = EDGE_LOOP ( 'NONE', ( #176, #170, #167, #173 ) ) ;
#229 = VERTEX_POINT ( 'NONE', #39 ) ;
#230 = ORIENTED_EDGE ( 'NONE', *, *, #283, .F. ) ;
#231 = EDGE_LOOP ( 'NONE', ( #196, #197, #230 ) ) ;
#232 = EDGE_LOOP ( 'NONE', ( #201, #199, #200 ) ) ;
#233 = UNCERTAINTY_MEASURE_WITH_UNIT (LENGTH_MEASURE( 1.000000000000000100E-005 ), #87, 'distance_accuracy_value', 'NONE');
#234 = MANIFOLD_SOLID_BREP ( 'TTN023926-1-solid1', #205 ) ;
#235 = ADVANCED_BREP_SHAPE_REPRESENTATION ( 'TTN023914-E0W', ( #234, #297 ), #289 ) ;
#236 = PERSON_AND_ORGANIZATION ( #49, #238 ) ;
#237 = SHAPE_DEFINITION_REPRESENTATION ( #3, #235 ) ;
#238 = ORGANIZATION ( 'UNSPECIFIED', 'UNSPECIFIED', '' ) ;
#239 = APPROVAL_PERSON_ORGANIZATION ( #240, #294, #98 ) ;
#240 = PERSON_AND_ORGANIZATION ( #49, #238 ) ;
#241 = CC_DESIGN_APPROVAL ( #242, ( #245 ) ) ;
#242 = APPROVAL ( #101, 'UNSPECIFIED' ) ;
#243 = CC_DESIGN_PERSON_AND_ORGANIZATION_ASSIGNMENT ( #154, #106, ( #247 ) ) ;
#244 = CC_DESIGN_PERSON_AND_ORGANIZATION_ASSIGNMENT ( #151, #104, ( #245 ) ) ;
#245 = PRODUCT_DEFINITION_FORMATION_WITH_SPECIFIED_SOURCE ( 'ANY', '', #48, .NOT_KNOWN. ) ;
#246 = CC_DESIGN_DATE_AND_TIME_ASSIGNMENT ( #131, #100, ( #300 ) ) ;
#247 = SECURITY_CLASSIFICATION ( '', '', #105 ) ;
#248 = CC_DESIGN_PERSON_AND_ORGANIZATION_ASSIGNMENT ( #133, #103, ( #245 ) ) ;
#249 = ORIENTED_EDGE ( 'NONE', *, *, #278, .T. ) ;
#250 = ORIENTED_EDGE ( 'NONE', *, *, #276, .T. ) ;
#251 = ORIENTED_EDGE ( 'NONE', *, *, #279, .T. ) ;
#252 = ORIENTED_EDGE ( 'NONE', *, *, #282, .F. ) ;
#253 = ORIENTED_EDGE ( 'NONE', *, *, #271, .T. ) ;
#254 = ORIENTED_EDGE ( 'NONE', *, *, #263, .T. ) ;
#255 = ORIENTED_EDGE ( 'NONE', *, *, #274, .T. ) ;
#256 = ORIENTED_EDGE ( 'NONE', *, *, #277, .T. ) ;
#257 = ORIENTED_EDGE ( 'NONE', *, *, #278, .F. ) ;
#258 = ORIENTED_EDGE ( 'NONE', *, *, #272, .F. ) ;
#259 = ORIENTED_EDGE ( 'NONE', *, *, #277, .F. ) ;
#260 = ORIENTED_EDGE ( 'NONE', *, *, #279, .F. ) ;
#261 = ORIENTED_EDGE ( 'NONE', *, *, #281, .T. ) ;
#262 = EDGE_CURVE ( 'NONE', #218, #215, #111, .T. ) ;
#263 = EDGE_CURVE ( 'NONE', #219, #218, #115, .T. ) ;
#264 = AXIS2_PLACEMENT_3D ( 'NONE', #14, #17, #18 ) ;
#265 = AXIS2_PLACEMENT_3D ( 'NONE', #5, #12, #11 ) ;
#266 = AXIS2_PLACEMENT_3D ( 'NONE', #30, #29, #25 ) ;
#267 = AXIS2_PLACEMENT_3D ( 'NONE', #285, #19, #13 ) ;
#268 = AXIS2_PLACEMENT_3D ( 'NONE', #15, #7, #8 ) ;
#269 = AXIS2_PLACEMENT_3D ( 'NONE', #6, #16, #10 ) ;
#270 = EDGE_CURVE ( 'NONE', #225, #223, #113, .T. ) ;
#271 = EDGE_CURVE ( 'NONE', #229, #179, #117, .T. ) ;
#272 = EDGE_CURVE ( 'NONE', #229, #226, #110, .T. ) ;
#273 = EDGE_CURVE ( 'NONE', #226, #175, #114, .T. ) ;
#274 = EDGE_CURVE ( 'NONE', #179, #175, #161, .T. ) ;
#275 = EDGE_CURVE ( 'NONE', #215, #175, #164, .T. ) ;
#276 = EDGE_CURVE ( 'NONE', #218, #226, #162, .T. ) ;
#277 = EDGE_CURVE ( 'NONE', #215, #218, #192, .T. ) ;
#278 = EDGE_CURVE ( 'NONE', #175, #226, #193, .T. ) ;
#279 = EDGE_CURVE ( 'NONE', #179, #229, #191, .T. ) ;
#280 = AXIS2_PLACEMENT_3D ( 'NONE', #22, #20, #23 ) ;
#281 = EDGE_CURVE ( 'NONE', #223, #219, #123, .T. ) ;
#282 = EDGE_CURVE ( 'NONE', #223, #215, #118, .T. ) ;
#283 = EDGE_CURVE ( 'NONE', #219, #223, #207, .T. ) ;
#284 = EDGE_CURVE ( 'NONE', #225, #219, #208, .T. ) ;
#285 = CARTESIAN_POINT ( 'NONE',  ( 0.0000000000000000000, 3.365256830582753600E-017, -0.07874015748031496000 ) ) ;
#286 = AXIS2_PLACEMENT_3D ( 'NONE', #79, #80, #81 ) ;
#287 = AXIS2_PLACEMENT_3D ( 'NONE', #56, #57, #58 ) ;
#288 = AXIS2_PLACEMENT_3D ( 'NONE', #75, #76, #77 ) ;
#289 =( GEOMETRIC_REPRESENTATION_CONTEXT ( 3 ) GLOBAL_UNCERTAINTY_ASSIGNED_CONTEXT ( ( #233 ) ) GLOBAL_UNIT_ASSIGNED_CONTEXT ( ( #87, #88, #89 ) ) REPRESENTATION_CONTEXT ( 'NONE', 'WORKASPACE' ) );
#290 = AXIS2_PLACEMENT_3D ( 'NONE', #83, #84, #85 ) ;
#291 = AXIS2_PLACEMENT_3D ( 'NONE', #67, #68, #69 ) ;
#292 = CC_DESIGN_PERSON_AND_ORGANIZATION_ASSIGNMENT ( #144, #99, ( #300 ) ) ;
#293 = AXIS2_PLACEMENT_3D ( 'NONE', #31, #26, #34 ) ;
#294 = APPROVAL ( #97, 'UNSPECIFIED' ) ;
#295 = CC_DESIGN_APPROVAL ( #294, ( #300 ) ) ;
#296 = AXIS2_PLACEMENT_3D ( 'NONE', #50, #51, #52 ) ;
#297 = AXIS2_PLACEMENT_3D ( 'NONE', #82, #78, #92 ) ;
#298 = AXIS2_PLACEMENT_3D ( 'NONE', #72, #73, #74 ) ;
#299 = AXIS2_PLACEMENT_3D ( 'NONE', #45, #46, #47 ) ;
#300 = PRODUCT_DEFINITION ( 'UNKNOWN', '', #245, #2 ) ;
#301 = CC_DESIGN_PERSON_AND_ORGANIZATION_ASSIGNMENT ( #236, #94, ( #48 ) ) ;
#302 = AXIS2_PLACEMENT_3D ( 'NONE', #21, #27, #28 ) ;
#303 = AXIS2_PLACEMENT_3D ( 'NONE', #42, #43, #44 ) ;
#304 = AXIS2_PLACEMENT_3D ( 'NONE', #64, #65, #66 ) ;
ENDSEC;
END-ISO-10303-21;
