ISO-10303-21;
HEADER;
FILE_DESCRIPTION (( 'STEP AP203' ),
    '1' );
FILE_NAME ('Web Model 62606.STEP',
    '2017-01-31T18:22:00',
    ( '' ),
    ( '' ),
    'SwSTEP 2.0',
    'SolidWorks 2016',
    '' );
FILE_SCHEMA (( 'CONFIG_CONTROL_DESIGN' ));
ENDSEC;

DATA;
#1 = CC_DESIGN_SECURITY_CLASSIFICATION ( #104, ( #20 ) ) ;
#2 = AXIS2_PLACEMENT_3D ( 'NONE', #108, #137, #123 ) ;
#3 = CARTESIAN_POINT ( 'NONE',  ( -37.50000000000000700, 0.0000000000000000000, 4.000000000000000000 ) ) ;
#4 = VERTEX_POINT ( 'NONE', #39 ) ;
#5 = CARTESIAN_POINT ( 'NONE',  ( 0.0000000000000000000, 0.0000000000000000000, 4.000000000000000000 ) ) ;
#6 = DIRECTION ( 'NONE',  ( -0.0000000000000000000, -0.0000000000000000000, -1.000000000000000000 ) ) ;
#7 = COORDINATED_UNIVERSAL_TIME_OFFSET ( 5, 0, .BEHIND. ) ;
#8 = APPROVAL_ROLE ( '' ) ;
#9 = CC_DESIGN_PERSON_AND_ORGANIZATION_ASSIGNMENT ( #11, #128, ( #20 ) ) ;
#10 = MECHANICAL_CONTEXT ( 'NONE', #113, 'mechanical' ) ;
#11 = PERSON_AND_ORGANIZATION ( #119, #48 ) ;
#12 = AXIS2_PLACEMENT_3D ( 'NONE', #19, #58, #146 ) ;
#13 = ORIENTED_EDGE ( 'NONE', *, *, #102, .T. ) ;
#14 = MANIFOLD_SOLID_BREP ( 'Extrude1', #158 ) ;
#15 = DATE_AND_TIME ( #106, #54 ) ;
#16 = PRODUCT ( 'Web Model 62606', 'Web Model 62606', '', ( #10 ) ) ;
#17 = CARTESIAN_POINT ( 'NONE',  ( 0.0000000000000000000, 0.0000000000000000000, 0.0000000000000000000 ) ) ;
#18 = VERTEX_POINT ( 'NONE', #38 ) ;
#19 = CARTESIAN_POINT ( 'NONE',  ( 0.0000000000000000000, 0.0000000000000000000, 0.0000000000000000000 ) ) ;
#20 = PRODUCT_DEFINITION_FORMATION_WITH_SPECIFIED_SOURCE ( 'ANY', '', #16, .NOT_KNOWN. ) ;
#21 = CARTESIAN_POINT ( 'NONE',  ( 0.0000000000000000000, 0.0000000000000000000, 4.000000000000000000 ) ) ;
#22 = SHAPE_DEFINITION_REPRESENTATION ( #93, #153 ) ;
#23 = EDGE_LOOP ( 'NONE', ( #82, #122 ) ) ;
#24 = AXIS2_PLACEMENT_3D ( 'NONE', #74, #141, #98 ) ;
#25 = APPROVAL_STATUS ( 'not_yet_approved' ) ;
#26 = APPROVAL_STATUS ( 'not_yet_approved' ) ;
#27 = CALENDAR_DATE ( 2017, 31, 1 ) ;
#28 = CIRCLE ( 'NONE', #12, 37.50000000000000700 ) ;
#29 = CC_DESIGN_APPROVAL ( #135, ( #166 ) ) ;
#30 = LOCAL_TIME ( 13, 22, 0.0000000000000000000, #50 ) ;
#31 = VECTOR ( 'NONE', #37, 1000.000000000000000 ) ;
#32 = DIRECTION ( 'NONE',  ( 0.0000000000000000000, 0.0000000000000000000, 1.000000000000000000 ) ) ;
#33 = AXIS2_PLACEMENT_3D ( 'NONE', #21, #34, #109 ) ;
#34 = DIRECTION ( 'NONE',  ( 0.0000000000000000000, 0.0000000000000000000, 1.000000000000000000 ) ) ;
#35 = CARTESIAN_POINT ( 'NONE',  ( -37.50000000000000700, 0.0000000000000000000, 0.0000000000000000000 ) ) ;
#36 = ORIENTED_EDGE ( 'NONE', *, *, #120, .T. ) ;
#37 = DIRECTION ( 'NONE',  ( -0.0000000000000000000, -0.0000000000000000000, -1.000000000000000000 ) ) ;
#38 = CARTESIAN_POINT ( 'NONE',  ( 37.50000000000000700, 4.592425496802575200E-015, 4.000000000000000000 ) ) ;
#39 = CARTESIAN_POINT ( 'NONE',  ( 37.50000000000000700, 4.592425496802575200E-015, 0.0000000000000000000 ) ) ;
#40 = APPROVAL_ROLE ( '' ) ;
#41 = EDGE_LOOP ( 'NONE', ( #139, #77 ) ) ;
#42 = APPLICATION_PROTOCOL_DEFINITION ( 'international standard', 'config_control_design', 1994, #156 ) ;
#43 = EDGE_CURVE ( 'NONE', #18, #126, #85, .T. ) ;
#44 =( GEOMETRIC_REPRESENTATION_CONTEXT ( 3 ) GLOBAL_UNCERTAINTY_ASSIGNED_CONTEXT ( ( #149 ) ) GLOBAL_UNIT_ASSIGNED_CONTEXT ( ( #59, #163, #152 ) ) REPRESENTATION_CONTEXT ( 'NONE', 'WORKASPACE' ) );
#45 = CARTESIAN_POINT ( 'NONE',  ( 0.0000000000000000000, 0.0000000000000000000, 4.000000000000000000 ) ) ;
#46 = COORDINATED_UNIVERSAL_TIME_OFFSET ( 5, 0, .BEHIND. ) ;
#47 = COORDINATED_UNIVERSAL_TIME_OFFSET ( 5, 0, .BEHIND. ) ;
#48 = ORGANIZATION ( 'UNSPECIFIED', 'UNSPECIFIED', '' ) ;
#49 = COORDINATED_UNIVERSAL_TIME_OFFSET ( 5, 0, .BEHIND. ) ;
#50 = COORDINATED_UNIVERSAL_TIME_OFFSET ( 5, 0, .BEHIND. ) ;
#51 = PRODUCT_RELATED_PRODUCT_CATEGORY ( 'detail', '', ( #16 ) ) ;
#52 = FACE_OUTER_BOUND ( 'NONE', #53, .T. ) ;
#53 = EDGE_LOOP ( 'NONE', ( #67, #142, #36, #145 ) ) ;
#54 = LOCAL_TIME ( 13, 22, 0.0000000000000000000, #7 ) ;
#55 = ORIENTED_EDGE ( 'NONE', *, *, #43, .F. ) ;
#56 = CARTESIAN_POINT ( 'NONE',  ( -37.50000000000000700, 0.0000000000000000000, 4.000000000000000000 ) ) ;
#57 = CC_DESIGN_PERSON_AND_ORGANIZATION_ASSIGNMENT ( #114, #167, ( #16 ) ) ;
#58 = DIRECTION ( 'NONE',  ( 0.0000000000000000000, 0.0000000000000000000, 1.000000000000000000 ) ) ;
#59 =( LENGTH_UNIT ( ) NAMED_UNIT ( * ) SI_UNIT ( .MILLI., .METRE. ) );
#60 = LINE ( 'NONE', #56, #31 ) ;
#61 = ADVANCED_FACE ( 'NONE', ( #118 ), #147, .F. ) ;
#62 = DATE_TIME_ROLE ( 'classification_date' ) ;
#63 = DATE_TIME_ROLE ( 'creation_date' ) ;
#64 = CALENDAR_DATE ( 2017, 31, 1 ) ;
#65 = PERSON_AND_ORGANIZATION ( #119, #48 ) ;
#66 = CC_DESIGN_PERSON_AND_ORGANIZATION_ASSIGNMENT ( #81, #95, ( #166 ) ) ;
#67 = ORIENTED_EDGE ( 'NONE', *, *, #72, .F. ) ;
#68 = CARTESIAN_POINT ( 'NONE',  ( 0.0000000000000000000, 0.0000000000000000000, 4.000000000000000000 ) ) ;
#69 = DIRECTION ( 'NONE',  ( -0.0000000000000000000, -0.0000000000000000000, -1.000000000000000000 ) ) ;
#70 = VERTEX_POINT ( 'NONE', #35 ) ;
#71 = PLANE ( 'NONE',  #89 ) ;
#72 = EDGE_CURVE ( 'NONE', #18, #4, #169, .T. ) ;
#73 = CC_DESIGN_DATE_AND_TIME_ASSIGNMENT ( #99, #63, ( #166 ) ) ;
#74 = CARTESIAN_POINT ( 'NONE',  ( 0.0000000000000000000, 0.0000000000000000000, 0.0000000000000000000 ) ) ;
#75 = EDGE_LOOP ( 'NONE', ( #55, #103, #13, #151 ) ) ;
#76 = APPROVAL_PERSON_ORGANIZATION ( #175, #135, #8 ) ;
#77 = ORIENTED_EDGE ( 'NONE', *, *, #102, .F. ) ;
#78 = LOCAL_TIME ( 13, 22, 0.0000000000000000000, #49 ) ;
#79 = AXIS2_PLACEMENT_3D ( 'NONE', #45, #80, #150 ) ;
#80 = DIRECTION ( 'NONE',  ( 0.0000000000000000000, 0.0000000000000000000, 1.000000000000000000 ) ) ;
#81 = PERSON_AND_ORGANIZATION ( #119, #48 ) ;
#82 = ORIENTED_EDGE ( 'NONE', *, *, #111, .T. ) ;
#83 = DIRECTION ( 'NONE',  ( 1.000000000000000000, 0.0000000000000000000, -0.0000000000000000000 ) ) ;
#84 = DIRECTION ( 'NONE',  ( -1.000000000000000000, 0.0000000000000000000, 0.0000000000000000000 ) ) ;
#85 = CIRCLE ( 'NONE', #79, 37.50000000000000700 ) ;
#86 = APPROVAL_ROLE ( '' ) ;
#87 = PERSON_AND_ORGANIZATION ( #119, #48 ) ;
#88 = CIRCLE ( 'NONE', #33, 37.50000000000000700 ) ;
#89 = AXIS2_PLACEMENT_3D ( 'NONE', #68, #133, #83 ) ;
#90 = DATE_AND_TIME ( #64, #78 ) ;
#91 = ADVANCED_FACE ( 'NONE', ( #112 ), #71, .T. ) ;
#92 = APPROVAL_DATE_TIME ( #97, #143 ) ;
#93 = PRODUCT_DEFINITION_SHAPE ( 'NONE', 'NONE',  #166 ) ;
#94 = DIRECTION ( 'NONE',  ( 0.0000000000000000000, 0.0000000000000000000, 1.000000000000000000 ) ) ;
#95 = PERSON_AND_ORGANIZATION_ROLE ( 'creator' ) ;
#96 = APPROVAL_DATE_TIME ( #90, #110 ) ;
#97 = DATE_AND_TIME ( #172, #30 ) ;
#98 = DIRECTION ( 'NONE',  ( 1.000000000000000000, 0.0000000000000000000, 0.0000000000000000000 ) ) ;
#99 = DATE_AND_TIME ( #174, #105 ) ;
#100 = LOCAL_TIME ( 13, 22, 0.0000000000000000000, #46 ) ;
#101 = CC_DESIGN_DATE_AND_TIME_ASSIGNMENT ( #15, #62, ( #104 ) ) ;
#102 = EDGE_CURVE ( 'NONE', #4, #70, #136, .T. ) ;
#103 = ORIENTED_EDGE ( 'NONE', *, *, #72, .T. ) ;
#104 = SECURITY_CLASSIFICATION ( '', '', #155 ) ;
#105 = LOCAL_TIME ( 13, 22, 0.0000000000000000000, #47 ) ;
#106 = CALENDAR_DATE ( 2017, 31, 1 ) ;
#107 = CARTESIAN_POINT ( 'NONE',  ( 37.50000000000000700, 4.592425496802575200E-015, 4.000000000000000000 ) ) ;
#108 = CARTESIAN_POINT ( 'NONE',  ( 0.0000000000000000000, 0.0000000000000000000, 4.000000000000000000 ) ) ;
#109 = DIRECTION ( 'NONE',  ( 1.000000000000000000, 0.0000000000000000000, 0.0000000000000000000 ) ) ;
#110 = APPROVAL ( #127, 'UNSPECIFIED' ) ;
#111 = EDGE_CURVE ( 'NONE', #126, #18, #88, .T. ) ;
#112 = FACE_OUTER_BOUND ( 'NONE', #23, .T. ) ;
#113 = APPLICATION_CONTEXT ( 'configuration controlled 3d designs of mechanical parts and assemblies' ) ;
#114 = PERSON_AND_ORGANIZATION ( #119, #48 ) ;
#115 = APPROVAL_PERSON_ORGANIZATION ( #148, #110, #40 ) ;
#116 = AXIS2_PLACEMENT_3D ( 'NONE', #17, #94, #144 ) ;
#117 = DATE_AND_TIME ( #27, #100 ) ;
#118 = FACE_OUTER_BOUND ( 'NONE', #41, .T. ) ;
#119 = PERSON ( 'UNSPECIFIED', 'UNSPECIFIED', 'UNSPECIFIED', ('UNSPECIFIED'), ('UNSPECIFIED'), ('UNSPECIFIED') ) ;
#120 = EDGE_CURVE ( 'NONE', #126, #70, #60, .T. ) ;
#121 = FACE_OUTER_BOUND ( 'NONE', #75, .T. ) ;
#122 = ORIENTED_EDGE ( 'NONE', *, *, #43, .T. ) ;
#123 = DIRECTION ( 'NONE',  ( -1.000000000000000000, 0.0000000000000000000, 0.0000000000000000000 ) ) ;
#124 = ADVANCED_FACE ( 'NONE', ( #121 ), #125, .T. ) ;
#125 = CYLINDRICAL_SURFACE ( 'NONE', #159, 37.50000000000000700 ) ;
#126 = VERTEX_POINT ( 'NONE', #3 ) ;
#127 = APPROVAL_STATUS ( 'not_yet_approved' ) ;
#128 = PERSON_AND_ORGANIZATION_ROLE ( 'design_supplier' ) ;
#129 = EDGE_CURVE ( 'NONE', #70, #4, #28, .T. ) ;
#130 = CC_DESIGN_PERSON_AND_ORGANIZATION_ASSIGNMENT ( #87, #168, ( #104 ) ) ;
#131 = VECTOR ( 'NONE', #6, 1000.000000000000000 ) ;
#132 = CC_DESIGN_APPROVAL ( #110, ( #104 ) ) ;
#133 = DIRECTION ( 'NONE',  ( 0.0000000000000000000, 0.0000000000000000000, 1.000000000000000000 ) ) ;
#134 = CARTESIAN_POINT ( 'NONE',  ( 0.0000000000000000000, 0.0000000000000000000, 0.0000000000000000000 ) ) ;
#135 = APPROVAL ( #26, 'UNSPECIFIED' ) ;
#136 = CIRCLE ( 'NONE', #138, 37.50000000000000700 ) ;
#137 = DIRECTION ( 'NONE',  ( -0.0000000000000000000, -0.0000000000000000000, -1.000000000000000000 ) ) ;
#138 = AXIS2_PLACEMENT_3D ( 'NONE', #134, #32, #164 ) ;
#139 = ORIENTED_EDGE ( 'NONE', *, *, #129, .F. ) ;
#140 = PERSON_AND_ORGANIZATION_ROLE ( 'creator' ) ;
#141 = DIRECTION ( 'NONE',  ( 0.0000000000000000000, 0.0000000000000000000, 1.000000000000000000 ) ) ;
#142 = ORIENTED_EDGE ( 'NONE', *, *, #111, .F. ) ;
#143 = APPROVAL ( #25, 'UNSPECIFIED' ) ;
#144 = DIRECTION ( 'NONE',  ( 1.000000000000000000, 0.0000000000000000000, -0.0000000000000000000 ) ) ;
#145 = ORIENTED_EDGE ( 'NONE', *, *, #129, .T. ) ;
#146 = DIRECTION ( 'NONE',  ( 1.000000000000000000, 0.0000000000000000000, 0.0000000000000000000 ) ) ;
#147 = PLANE ( 'NONE',  #116 ) ;
#148 = PERSON_AND_ORGANIZATION ( #119, #48 ) ;
#149 = UNCERTAINTY_MEASURE_WITH_UNIT (LENGTH_MEASURE( 1.000000000000000100E-005 ), #59, 'distance_accuracy_value', 'NONE');
#150 = DIRECTION ( 'NONE',  ( 1.000000000000000000, 0.0000000000000000000, 0.0000000000000000000 ) ) ;
#151 = ORIENTED_EDGE ( 'NONE', *, *, #120, .F. ) ;
#152 =( NAMED_UNIT ( * ) SI_UNIT ( $, .STERADIAN. ) SOLID_ANGLE_UNIT ( ) );
#153 = ADVANCED_BREP_SHAPE_REPRESENTATION ( 'Web Model 62606', ( #14, #24 ), #44 ) ;
#154 = CC_DESIGN_APPROVAL ( #143, ( #20 ) ) ;
#155 = SECURITY_CLASSIFICATION_LEVEL ( 'unclassified' ) ;
#156 = APPLICATION_CONTEXT ( 'configuration controlled 3d designs of mechanical parts and assemblies' ) ;
#157 = APPROVAL_DATE_TIME ( #117, #135 ) ;
#158 = CLOSED_SHELL ( 'NONE', ( #124, #161, #91, #61 ) ) ;
#159 = AXIS2_PLACEMENT_3D ( 'NONE', #5, #69, #84 ) ;
#160 = DESIGN_CONTEXT ( 'detailed design', #156, 'design' ) ;
#161 = ADVANCED_FACE ( 'NONE', ( #52 ), #162, .T. ) ;
#162 = CYLINDRICAL_SURFACE ( 'NONE', #2, 37.50000000000000700 ) ;
#163 =( NAMED_UNIT ( * ) PLANE_ANGLE_UNIT ( ) SI_UNIT ( $, .RADIAN. ) );
#164 = DIRECTION ( 'NONE',  ( 1.000000000000000000, 0.0000000000000000000, 0.0000000000000000000 ) ) ;
#165 = PERSON_AND_ORGANIZATION ( #119, #48 ) ;
#166 = PRODUCT_DEFINITION ( 'UNKNOWN', '', #20, #160 ) ;
#167 = PERSON_AND_ORGANIZATION_ROLE ( 'design_owner' ) ;
#168 = PERSON_AND_ORGANIZATION_ROLE ( 'classification_officer' ) ;
#169 = LINE ( 'NONE', #107, #131 ) ;
#170 = APPROVAL_PERSON_ORGANIZATION ( #165, #143, #86 ) ;
#171 = APPLICATION_PROTOCOL_DEFINITION ( 'international standard', 'config_control_design', 1994, #113 ) ;
#172 = CALENDAR_DATE ( 2017, 31, 1 ) ;
#173 = CC_DESIGN_PERSON_AND_ORGANIZATION_ASSIGNMENT ( #65, #140, ( #20 ) ) ;
#174 = CALENDAR_DATE ( 2017, 31, 1 ) ;
#175 = PERSON_AND_ORGANIZATION ( #119, #48 ) ;
ENDSEC;
END-ISO-10303-21;
