ISO-10303-21;
HEADER;
FILE_DESCRIPTION (( 'STEP AP203' ),
    '1' );
FILE_NAME ('Web Model 39245_37704.step',
    '2018-10-15T14:41:35',
    ( '' ),
    ( '' ),
    'SwSTEP 2.0',
    'SolidWorks 2016',
    '' );
FILE_SCHEMA (( 'CONFIG_CONTROL_DESIGN' ));
ENDSEC;

DATA;
#1 = ORIENTED_EDGE ( 'NONE', *, *, #73, .F. ) ;
#2 = APPROVAL_ROLE ( '' ) ;
#3 = CARTESIAN_POINT ( 'NONE',  ( 0.0000000000000000000, 0.0000000000000000000, -1.575000000000000000 ) ) ;
#4 = DATE_AND_TIME ( #101, #69 ) ;
#5 = APPROVAL_ROLE ( '' ) ;
#6 = CC_DESIGN_APPROVAL ( #131, ( #127 ) ) ;
#7 = AXIS2_PLACEMENT_3D ( 'NONE', #150, #134, #20 ) ;
#8 = EDGE_CURVE ( 'NONE', #163, #124, #144, .T. ) ;
#9 = APPROVAL_PERSON_ORGANIZATION ( #35, #173, #5 ) ;
#10 = DIRECTION ( 'NONE',  ( -0.0000000000000000000, -0.0000000000000000000, -1.000000000000000000 ) ) ;
#11 = CC_DESIGN_PERSON_AND_ORGANIZATION_ASSIGNMENT ( #142, #71, ( #13 ) ) ;
#12 = UNCERTAINTY_MEASURE_WITH_UNIT (LENGTH_MEASURE( 1.000000000000000100E-005 ), #74, 'distance_accuracy_value', 'NONE');
#13 = PRODUCT ( 'Web Model 39245_37704', 'Web Model 39245_37704', '', ( #45 ) ) ;
#14 = APPROVAL_PERSON_ORGANIZATION ( #84, #131, #149 ) ;
#15 = FACE_OUTER_BOUND ( 'NONE', #132, .T. ) ;
#16 = CARTESIAN_POINT ( 'NONE',  ( 0.0000000000000000000, 0.0000000000000000000, 0.0000000000000000000 ) ) ;
#17 = CC_DESIGN_APPROVAL ( #173, ( #26 ) ) ;
#18 = PERSON_AND_ORGANIZATION_ROLE ( 'classification_officer' ) ;
#19 = DIRECTION ( 'NONE',  ( 1.000000000000000000, 0.0000000000000000000, 0.0000000000000000000 ) ) ;
#20 = DIRECTION ( 'NONE',  ( -1.000000000000000000, 0.0000000000000000000, 0.0000000000000000000 ) ) ;
#21 = ORIENTED_EDGE ( 'NONE', *, *, #62, .F. ) ;
#22 = PERSON_AND_ORGANIZATION_ROLE ( 'creator' ) ;
#23 = CALENDAR_DATE ( 2018, 15, 10 ) ;
#24 = CARTESIAN_POINT ( 'NONE',  ( 0.0000000000000000000, 0.0000000000000000000, -1.575000000000000000 ) ) ;
#25 = MANIFOLD_SOLID_BREP ( 'Boss-Extrude1', #66 ) ;
#26 = PRODUCT_DEFINITION ( 'UNKNOWN', '', #54, #143 ) ;
#27 = ADVANCED_BREP_SHAPE_REPRESENTATION ( 'Web Model 39245_37704', ( #25, #160 ), #44 ) ;
#28 = CYLINDRICAL_SURFACE ( 'NONE', #117, 25.39999999999999900 ) ;
#29 = CC_DESIGN_PERSON_AND_ORGANIZATION_ASSIGNMENT ( #119, #22, ( #26 ) ) ;
#30 = SECURITY_CLASSIFICATION_LEVEL ( 'unclassified' ) ;
#31 = PERSON_AND_ORGANIZATION ( #41, #79 ) ;
#32 = DIRECTION ( 'NONE',  ( 0.0000000000000000000, 0.0000000000000000000, 1.000000000000000000 ) ) ;
#33 = CARTESIAN_POINT ( 'NONE',  ( 25.39999999999999900, 3.110602869834276900E-015, 1.575000000000000000 ) ) ;
#34 =( NAMED_UNIT ( * ) SI_UNIT ( $, .STERADIAN. ) SOLID_ANGLE_UNIT ( ) );
#35 = PERSON_AND_ORGANIZATION ( #41, #79 ) ;
#36 = AXIS2_PLACEMENT_3D ( 'NONE', #152, #67, #38 ) ;
#37 = ORIENTED_EDGE ( 'NONE', *, *, #8, .F. ) ;
#38 = DIRECTION ( 'NONE',  ( 1.000000000000000000, 0.0000000000000000000, -0.0000000000000000000 ) ) ;
#39 = VERTEX_POINT ( 'NONE', #157 ) ;
#40 = COORDINATED_UNIVERSAL_TIME_OFFSET ( 5, 0, .BEHIND. ) ;
#41 = PERSON ( 'UNSPECIFIED', 'UNSPECIFIED', 'UNSPECIFIED', ('UNSPECIFIED'), ('UNSPECIFIED'), ('UNSPECIFIED') ) ;
#42 = EDGE_LOOP ( 'NONE', ( #37, #138, #103, #102 ) ) ;
#43 = LINE ( 'NONE', #47, #158 ) ;
#44 =( GEOMETRIC_REPRESENTATION_CONTEXT ( 3 ) GLOBAL_UNCERTAINTY_ASSIGNED_CONTEXT ( ( #12 ) ) GLOBAL_UNIT_ASSIGNED_CONTEXT ( ( #74, #135, #34 ) ) REPRESENTATION_CONTEXT ( 'NONE', 'WORKASPACE' ) );
#45 = MECHANICAL_CONTEXT ( 'NONE', #164, 'mechanical' ) ;
#46 = DATE_AND_TIME ( #78, #53 ) ;
#47 = CARTESIAN_POINT ( 'NONE',  ( -25.39999999999999900, 0.0000000000000000000, 1.575000000000000000 ) ) ;
#48 = DIRECTION ( 'NONE',  ( -0.0000000000000000000, -0.0000000000000000000, -1.000000000000000000 ) ) ;
#49 = CC_DESIGN_DATE_AND_TIME_ASSIGNMENT ( #56, #162, ( #127 ) ) ;
#50 = ORIENTED_EDGE ( 'NONE', *, *, #8, .T. ) ;
#51 = AXIS2_PLACEMENT_3D ( 'NONE', #3, #99, #110 ) ;
#52 = SHAPE_DEFINITION_REPRESENTATION ( #121, #27 ) ;
#53 = LOCAL_TIME ( 10, 41, 35.00000000000000000, #145 ) ;
#54 = PRODUCT_DEFINITION_FORMATION_WITH_SPECIFIED_SOURCE ( 'ANY', '', #13, .NOT_KNOWN. ) ;
#55 = PLANE ( 'NONE',  #36 ) ;
#56 = DATE_AND_TIME ( #57, #87 ) ;
#57 = CALENDAR_DATE ( 2018, 15, 10 ) ;
#58 = CARTESIAN_POINT ( 'NONE',  ( 0.0000000000000000000, 0.0000000000000000000, 1.575000000000000000 ) ) ;
#59 = APPROVAL_STATUS ( 'not_yet_approved' ) ;
#60 = DIRECTION ( 'NONE',  ( 1.000000000000000000, 0.0000000000000000000, -0.0000000000000000000 ) ) ;
#61 = DIRECTION ( 'NONE',  ( 0.0000000000000000000, 0.0000000000000000000, 1.000000000000000000 ) ) ;
#62 = EDGE_CURVE ( 'NONE', #163, #72, #63, .T. ) ;
#63 = LINE ( 'NONE', #116, #75 ) ;
#64 = DATE_AND_TIME ( #23, #90 ) ;
#65 = DIRECTION ( 'NONE',  ( 1.000000000000000000, 0.0000000000000000000, 0.0000000000000000000 ) ) ;
#66 = CLOSED_SHELL ( 'NONE', ( #170, #154, #156, #112 ) ) ;
#67 = DIRECTION ( 'NONE',  ( 0.0000000000000000000, 0.0000000000000000000, 1.000000000000000000 ) ) ;
#68 = APPROVAL_DATE_TIME ( #4, #86 ) ;
#69 = LOCAL_TIME ( 10, 41, 35.00000000000000000, #123 ) ;
#70 = CC_DESIGN_DATE_AND_TIME_ASSIGNMENT ( #64, #81, ( #26 ) ) ;
#71 = PERSON_AND_ORGANIZATION_ROLE ( 'design_owner' ) ;
#72 = VERTEX_POINT ( 'NONE', #174 ) ;
#73 = EDGE_CURVE ( 'NONE', #72, #39, #91, .T. ) ;
#74 =( LENGTH_UNIT ( ) NAMED_UNIT ( * ) SI_UNIT ( .MILLI., .METRE. ) );
#75 = VECTOR ( 'NONE', #10, 1000.000000000000000 ) ;
#76 = EDGE_LOOP ( 'NONE', ( #175, #1 ) ) ;
#77 = ORIENTED_EDGE ( 'NONE', *, *, #168, .T. ) ;
#78 = CALENDAR_DATE ( 2018, 15, 10 ) ;
#79 = ORGANIZATION ( 'UNSPECIFIED', 'UNSPECIFIED', '' ) ;
#80 = AXIS2_PLACEMENT_3D ( 'NONE', #24, #139, #65 ) ;
#81 = DATE_TIME_ROLE ( 'creation_date' ) ;
#82 = APPLICATION_PROTOCOL_DEFINITION ( 'international standard', 'config_control_design', 1994, #164 ) ;
#83 = APPROVAL_STATUS ( 'not_yet_approved' ) ;
#84 = PERSON_AND_ORGANIZATION ( #41, #79 ) ;
#85 = CARTESIAN_POINT ( 'NONE',  ( 0.0000000000000000000, 0.0000000000000000000, 1.575000000000000000 ) ) ;
#86 = APPROVAL ( #59, 'UNSPECIFIED' ) ;
#87 = LOCAL_TIME ( 10, 41, 35.00000000000000000, #40 ) ;
#88 = EDGE_CURVE ( 'NONE', #39, #72, #126, .T. ) ;
#89 = CALENDAR_DATE ( 2018, 15, 10 ) ;
#90 = LOCAL_TIME ( 10, 41, 35.00000000000000000, #161 ) ;
#91 = CIRCLE ( 'NONE', #51, 25.39999999999999900 ) ;
#92 = PERSON_AND_ORGANIZATION ( #41, #79 ) ;
#93 = DIRECTION ( 'NONE',  ( 0.0000000000000000000, 0.0000000000000000000, 1.000000000000000000 ) ) ;
#94 = CC_DESIGN_APPROVAL ( #86, ( #54 ) ) ;
#95 = EDGE_CURVE ( 'NONE', #124, #39, #43, .T. ) ;
#96 = PERSON_AND_ORGANIZATION_ROLE ( 'design_supplier' ) ;
#97 = APPROVAL_DATE_TIME ( #147, #173 ) ;
#98 = PLANE ( 'NONE',  #107 ) ;
#99 = DIRECTION ( 'NONE',  ( 0.0000000000000000000, 0.0000000000000000000, 1.000000000000000000 ) ) ;
#100 = ORIENTED_EDGE ( 'NONE', *, *, #88, .T. ) ;
#101 = CALENDAR_DATE ( 2018, 15, 10 ) ;
#102 = ORIENTED_EDGE ( 'NONE', *, *, #95, .F. ) ;
#103 = ORIENTED_EDGE ( 'NONE', *, *, #73, .T. ) ;
#104 = APPROVAL_PERSON_ORGANIZATION ( #31, #86, #2 ) ;
#105 = DIRECTION ( 'NONE',  ( 1.000000000000000000, 0.0000000000000000000, 0.0000000000000000000 ) ) ;
#106 = CC_DESIGN_PERSON_AND_ORGANIZATION_ASSIGNMENT ( #92, #108, ( #54 ) ) ;
#107 = AXIS2_PLACEMENT_3D ( 'NONE', #115, #61, #60 ) ;
#108 = PERSON_AND_ORGANIZATION_ROLE ( 'creator' ) ;
#109 = CYLINDRICAL_SURFACE ( 'NONE', #7, 25.39999999999999900 ) ;
#110 = DIRECTION ( 'NONE',  ( 1.000000000000000000, 0.0000000000000000000, 0.0000000000000000000 ) ) ;
#111 = APPROVAL_STATUS ( 'not_yet_approved' ) ;
#112 = ADVANCED_FACE ( 'NONE', ( #114 ), #55, .F. ) ;
#113 = COORDINATED_UNIVERSAL_TIME_OFFSET ( 5, 0, .BEHIND. ) ;
#114 = FACE_OUTER_BOUND ( 'NONE', #76, .T. ) ;
#115 = CARTESIAN_POINT ( 'NONE',  ( 0.0000000000000000000, 0.0000000000000000000, 1.575000000000000000 ) ) ;
#116 = CARTESIAN_POINT ( 'NONE',  ( 25.39999999999999900, 3.110602869834276900E-015, 1.575000000000000000 ) ) ;
#117 = AXIS2_PLACEMENT_3D ( 'NONE', #85, #48, #118 ) ;
#118 = DIRECTION ( 'NONE',  ( -1.000000000000000000, 0.0000000000000000000, 0.0000000000000000000 ) ) ;
#119 = PERSON_AND_ORGANIZATION ( #41, #79 ) ;
#120 = CC_DESIGN_PERSON_AND_ORGANIZATION_ASSIGNMENT ( #128, #18, ( #127 ) ) ;
#121 = PRODUCT_DEFINITION_SHAPE ( 'NONE', 'NONE',  #26 ) ;
#122 = FACE_OUTER_BOUND ( 'NONE', #171, .T. ) ;
#123 = COORDINATED_UNIVERSAL_TIME_OFFSET ( 5, 0, .BEHIND. ) ;
#124 = VERTEX_POINT ( 'NONE', #141 ) ;
#125 = DIRECTION ( 'NONE',  ( -0.0000000000000000000, -0.0000000000000000000, -1.000000000000000000 ) ) ;
#126 = CIRCLE ( 'NONE', #80, 25.39999999999999900 ) ;
#127 = SECURITY_CLASSIFICATION ( '', '', #30 ) ;
#128 = PERSON_AND_ORGANIZATION ( #41, #79 ) ;
#129 = CARTESIAN_POINT ( 'NONE',  ( 0.0000000000000000000, 0.0000000000000000000, 1.575000000000000000 ) ) ;
#130 = ORIENTED_EDGE ( 'NONE', *, *, #95, .T. ) ;
#131 = APPROVAL ( #83, 'UNSPECIFIED' ) ;
#132 = EDGE_LOOP ( 'NONE', ( #21, #140, #130, #100 ) ) ;
#133 = AXIS2_PLACEMENT_3D ( 'NONE', #58, #32, #19 ) ;
#134 = DIRECTION ( 'NONE',  ( -0.0000000000000000000, -0.0000000000000000000, -1.000000000000000000 ) ) ;
#135 =( NAMED_UNIT ( * ) PLANE_ANGLE_UNIT ( ) SI_UNIT ( $, .RADIAN. ) );
#136 = DIRECTION ( 'NONE',  ( 0.0000000000000000000, 0.0000000000000000000, 1.000000000000000000 ) ) ;
#137 = APPLICATION_PROTOCOL_DEFINITION ( 'international standard', 'config_control_design', 1994, #159 ) ;
#138 = ORIENTED_EDGE ( 'NONE', *, *, #62, .T. ) ;
#139 = DIRECTION ( 'NONE',  ( 0.0000000000000000000, 0.0000000000000000000, 1.000000000000000000 ) ) ;
#140 = ORIENTED_EDGE ( 'NONE', *, *, #168, .F. ) ;
#141 = CARTESIAN_POINT ( 'NONE',  ( -25.39999999999999900, 0.0000000000000000000, 1.575000000000000000 ) ) ;
#142 = PERSON_AND_ORGANIZATION ( #41, #79 ) ;
#143 = DESIGN_CONTEXT ( 'detailed design', #159, 'design' ) ;
#144 = CIRCLE ( 'NONE', #167, 25.39999999999999900 ) ;
#145 = COORDINATED_UNIVERSAL_TIME_OFFSET ( 5, 0, .BEHIND. ) ;
#146 = APPROVAL_DATE_TIME ( #46, #131 ) ;
#147 = DATE_AND_TIME ( #89, #172 ) ;
#148 = CC_DESIGN_SECURITY_CLASSIFICATION ( #127, ( #54 ) ) ;
#149 = APPROVAL_ROLE ( '' ) ;
#150 = CARTESIAN_POINT ( 'NONE',  ( 0.0000000000000000000, 0.0000000000000000000, 1.575000000000000000 ) ) ;
#151 = DIRECTION ( 'NONE',  ( 1.000000000000000000, 0.0000000000000000000, 0.0000000000000000000 ) ) ;
#152 = CARTESIAN_POINT ( 'NONE',  ( 0.0000000000000000000, 0.0000000000000000000, -1.575000000000000000 ) ) ;
#153 = FACE_OUTER_BOUND ( 'NONE', #42, .T. ) ;
#154 = ADVANCED_FACE ( 'NONE', ( #15 ), #28, .T. ) ;
#155 = PRODUCT_RELATED_PRODUCT_CATEGORY ( 'detail', '', ( #13 ) ) ;
#156 = ADVANCED_FACE ( 'NONE', ( #122 ), #98, .T. ) ;
#157 = CARTESIAN_POINT ( 'NONE',  ( -25.39999999999999900, 0.0000000000000000000, -1.575000000000000000 ) ) ;
#158 = VECTOR ( 'NONE', #125, 1000.000000000000000 ) ;
#159 = APPLICATION_CONTEXT ( 'configuration controlled 3d designs of mechanical parts and assemblies' ) ;
#160 = AXIS2_PLACEMENT_3D ( 'NONE', #16, #136, #151 ) ;
#161 = COORDINATED_UNIVERSAL_TIME_OFFSET ( 5, 0, .BEHIND. ) ;
#162 = DATE_TIME_ROLE ( 'classification_date' ) ;
#163 = VERTEX_POINT ( 'NONE', #33 ) ;
#164 = APPLICATION_CONTEXT ( 'configuration controlled 3d designs of mechanical parts and assemblies' ) ;
#165 = CC_DESIGN_PERSON_AND_ORGANIZATION_ASSIGNMENT ( #166, #96, ( #54 ) ) ;
#166 = PERSON_AND_ORGANIZATION ( #41, #79 ) ;
#167 = AXIS2_PLACEMENT_3D ( 'NONE', #129, #93, #105 ) ;
#168 = EDGE_CURVE ( 'NONE', #124, #163, #169, .T. ) ;
#169 = CIRCLE ( 'NONE', #133, 25.39999999999999900 ) ;
#170 = ADVANCED_FACE ( 'NONE', ( #153 ), #109, .T. ) ;
#171 = EDGE_LOOP ( 'NONE', ( #77, #50 ) ) ;
#172 = LOCAL_TIME ( 10, 41, 35.00000000000000000, #113 ) ;
#173 = APPROVAL ( #111, 'UNSPECIFIED' ) ;
#174 = CARTESIAN_POINT ( 'NONE',  ( 25.39999999999999900, 3.110602869834276900E-015, -1.575000000000000000 ) ) ;
#175 = ORIENTED_EDGE ( 'NONE', *, *, #88, .F. ) ;
ENDSEC;
END-ISO-10303-21;
