ISO-10303-21;
HEADER;
FILE_DESCRIPTION (( 'STEP AP203' ),
    '1' );
FILE_NAME ('Web Model 43975_63221.step',
    '2017-03-01T20:49:53',
    ( '' ),
    ( '' ),
    'SwSTEP 2.0',
    'SolidWorks 2016',
    '' );
FILE_SCHEMA (( 'CONFIG_CONTROL_DESIGN' ));
ENDSEC;

DATA;
#1 = ORIENTED_EDGE ( 'NONE', *, *, #126, .F. ) ;
#2 = LINE ( 'NONE', #148, #147 ) ;
#3 = DIRECTION ( 'NONE',  ( -1.000000000000000000, 9.106159978880878600E-017, -0.0000000000000000000 ) ) ;
#4 = FACE_OUTER_BOUND ( 'NONE', #46, .T. ) ;
#5 = CARTESIAN_POINT ( 'NONE',  ( -152.3999999999999500, -127.0000000000000000, 1.000000000000000000 ) ) ;
#6 = CARTESIAN_POINT ( 'NONE',  ( -152.3999999999999500, -127.0000000000000000, 1.000000000000000000 ) ) ;
#7 = CARTESIAN_POINT ( 'NONE',  ( -152.3999999999999500, -127.0000000000000000, 1.000000000000000000 ) ) ;
#8 = CARTESIAN_POINT ( 'NONE',  ( 152.4000000000000100, 126.9999999999999700, 1.000000000000000000 ) ) ;
#9 = VERTEX_POINT ( 'NONE', #197 ) ;
#10 = UNCERTAINTY_MEASURE_WITH_UNIT (LENGTH_MEASURE( 1.000000000000000100E-005 ), #111, 'distance_accuracy_value', 'NONE');
#11 = ORIENTED_EDGE ( 'NONE', *, *, #120, .T. ) ;
#12 = APPROVAL_STATUS ( 'not_yet_approved' ) ;
#13 = VECTOR ( 'NONE', #25, 1000.000000000000000 ) ;
#14 = CC_DESIGN_PERSON_AND_ORGANIZATION_ASSIGNMENT ( #82, #208, ( #68 ) ) ;
#15 = APPROVAL ( #127, 'UNSPECIFIED' ) ;
#16 = VERTEX_POINT ( 'NONE', #21 ) ;
#17 = DATE_AND_TIME ( #70, #119 ) ;
#18 = AXIS2_PLACEMENT_3D ( 'NONE', #216, #234, #37 ) ;
#19 = ORIENTED_EDGE ( 'NONE', *, *, #87, .F. ) ;
#20 = PERSON_AND_ORGANIZATION ( #116, #218 ) ;
#21 = CARTESIAN_POINT ( 'NONE',  ( 152.4000000000000300, -126.9999999999999100, 0.0000000000000000000 ) ) ;
#22 = DIRECTION ( 'NONE',  ( -0.0000000000000000000, 0.0000000000000000000, 1.000000000000000000 ) ) ;
#23 = SECURITY_CLASSIFICATION ( '', '', #108 ) ;
#24 = CARTESIAN_POINT ( 'NONE',  ( 0.0000000000000000000, 0.0000000000000000000, 0.0000000000000000000 ) ) ;
#25 = DIRECTION ( 'NONE',  ( 2.185478394931410600E-016, -1.000000000000000000, 0.0000000000000000000 ) ) ;
#26 = VERTEX_POINT ( 'NONE', #149 ) ;
#27 = CARTESIAN_POINT ( 'NONE',  ( -152.4000000000000100, 127.0000000000000000, 1.000000000000000000 ) ) ;
#28 = PLANE ( 'NONE',  #164 ) ;
#29 = COORDINATED_UNIVERSAL_TIME_OFFSET ( 5, 0, .BEHIND. ) ;
#30 = CC_DESIGN_APPROVAL ( #15, ( #237 ) ) ;
#31 = CLOSED_SHELL ( 'NONE', ( #56, #174, #146, #134, #106, #214 ) ) ;
#32 = PERSON_AND_ORGANIZATION ( #116, #218 ) ;
#33 = VERTEX_POINT ( 'NONE', #57 ) ;
#34 = SHAPE_DEFINITION_REPRESENTATION ( #187, #105 ) ;
#35 = CALENDAR_DATE ( 2017, 1, 3 ) ;
#36 = MANIFOLD_SOLID_BREP ( 'Boss-Extrude1', #31 ) ;
#37 = DIRECTION ( 'NONE',  ( -2.185478394931410600E-016, 1.000000000000000000, 0.0000000000000000000 ) ) ;
#38 = CC_DESIGN_PERSON_AND_ORGANIZATION_ASSIGNMENT ( #32, #231, ( #23 ) ) ;
#39 = CC_DESIGN_APPROVAL ( #63, ( #23 ) ) ;
#40 = DATE_AND_TIME ( #92, #142 ) ;
#41 = CC_DESIGN_PERSON_AND_ORGANIZATION_ASSIGNMENT ( #139, #49, ( #237 ) ) ;
#42 = VECTOR ( 'NONE', #204, 1000.000000000000000 ) ;
#43 = DIRECTION ( 'NONE',  ( 1.092739197465706000E-016, -1.000000000000000000, 0.0000000000000000000 ) ) ;
#44 = CARTESIAN_POINT ( 'NONE',  ( 152.4000000000000100, 126.9999999999999700, 1.000000000000000000 ) ) ;
#45 = EDGE_CURVE ( 'NONE', #16, #61, #55, .T. ) ;
#46 = EDGE_LOOP ( 'NONE', ( #112, #80, #1, #136 ) ) ;
#47 = LINE ( 'NONE', #44, #180 ) ;
#48 = APPLICATION_PROTOCOL_DEFINITION ( 'international standard', 'config_control_design', 1994, #72 ) ;
#49 = PERSON_AND_ORGANIZATION_ROLE ( 'creator' ) ;
#50 = FACE_OUTER_BOUND ( 'NONE', #212, .T. ) ;
#51 = CC_DESIGN_DATE_AND_TIME_ASSIGNMENT ( #76, #128, ( #23 ) ) ;
#52 = CC_DESIGN_SECURITY_CLASSIFICATION ( #23, ( #68 ) ) ;
#53 = CC_DESIGN_DATE_AND_TIME_ASSIGNMENT ( #40, #175, ( #237 ) ) ;
#54 = DIRECTION ( 'NONE',  ( 0.0000000000000000000, 0.0000000000000000000, 1.000000000000000000 ) ) ;
#55 = LINE ( 'NONE', #181, #188 ) ;
#56 = ADVANCED_FACE ( 'NONE', ( #193 ), #135, .F. ) ;
#57 = CARTESIAN_POINT ( 'NONE',  ( -152.4000000000000100, 127.0000000000000000, 1.000000000000000000 ) ) ;
#58 = FACE_OUTER_BOUND ( 'NONE', #118, .T. ) ;
#59 = ORIENTED_EDGE ( 'NONE', *, *, #201, .F. ) ;
#60 = EDGE_CURVE ( 'NONE', #9, #26, #2, .T. ) ;
#61 = VERTEX_POINT ( 'NONE', #184 ) ;
#62 = LINE ( 'NONE', #202, #13 ) ;
#63 = APPROVAL ( #12, 'UNSPECIFIED' ) ;
#64 = CARTESIAN_POINT ( 'NONE',  ( 152.4000000000000100, 126.9999999999999700, 1.000000000000000000 ) ) ;
#65 = DIRECTION ( 'NONE',  ( -0.0000000000000000000, -0.0000000000000000000, -1.000000000000000000 ) ) ;
#66 = PLANE ( 'NONE',  #209 ) ;
#67 = PRODUCT_RELATED_PRODUCT_CATEGORY ( 'detail', '', ( #97 ) ) ;
#68 = PRODUCT_DEFINITION_FORMATION_WITH_SPECIFIED_SOURCE ( 'ANY', '', #97, .NOT_KNOWN. ) ;
#69 = ORIENTED_EDGE ( 'NONE', *, *, #103, .T. ) ;
#70 = CALENDAR_DATE ( 2017, 1, 3 ) ;
#71 = VERTEX_POINT ( 'NONE', #157 ) ;
#72 = APPLICATION_CONTEXT ( 'configuration controlled 3d designs of mechanical parts and assemblies' ) ;
#73 = APPROVAL_STATUS ( 'not_yet_approved' ) ;
#74 = ORIENTED_EDGE ( 'NONE', *, *, #215, .T. ) ;
#75 = VERTEX_POINT ( 'NONE', #95 ) ;
#76 = DATE_AND_TIME ( #125, #168 ) ;
#77 = EDGE_CURVE ( 'NONE', #138, #61, #47, .T. ) ;
#78 = ORIENTED_EDGE ( 'NONE', *, *, #98, .T. ) ;
#79 = APPROVAL_PERSON_ORGANIZATION ( #130, #15, #159 ) ;
#80 = ORIENTED_EDGE ( 'NONE', *, *, #103, .F. ) ;
#81 = APPROVAL ( #73, 'UNSPECIFIED' ) ;
#82 = PERSON_AND_ORGANIZATION ( #116, #218 ) ;
#83 = ORIENTED_EDGE ( 'NONE', *, *, #77, .F. ) ;
#84 = PLANE ( 'NONE',  #185 ) ;
#85 = CARTESIAN_POINT ( 'NONE',  ( -152.4000000000000100, 127.0000000000000000, 0.0000000000000000000 ) ) ;
#86 = LOCAL_TIME ( 15, 49, 53.00000000000000000, #137 ) ;
#87 = EDGE_CURVE ( 'NONE', #75, #26, #233, .T. ) ;
#88 = ORIENTED_EDGE ( 'NONE', *, *, #201, .T. ) ;
#89 = FACE_OUTER_BOUND ( 'NONE', #131, .T. ) ;
#90 = MECHANICAL_CONTEXT ( 'NONE', #72, 'mechanical' ) ;
#91 = PERSON_AND_ORGANIZATION_ROLE ( 'creator' ) ;
#92 = CALENDAR_DATE ( 2017, 1, 3 ) ;
#93 = DIRECTION ( 'NONE',  ( -0.0000000000000000000, -0.0000000000000000000, -1.000000000000000000 ) ) ;
#94 = LINE ( 'NONE', #227, #178 ) ;
#95 = CARTESIAN_POINT ( 'NONE',  ( -152.3999999999999500, -127.0000000000000000, 1.000000000000000000 ) ) ;
#96 = LINE ( 'NONE', #194, #192 ) ;
#97 = PRODUCT ( 'Web Model 43975_63221', 'Web Model 43975_63221', '', ( #90 ) ) ;
#98 = EDGE_CURVE ( 'NONE', #71, #138, #143, .T. ) ;
#99 = EDGE_LOOP ( 'NONE', ( #205, #19, #167, #69 ) ) ;
#100 = VECTOR ( 'NONE', #222, 1000.000000000000000 ) ;
#101 = LINE ( 'NONE', #141, #115 ) ;
#102 = PLANE ( 'NONE',  #145 ) ;
#103 = EDGE_CURVE ( 'NONE', #33, #9, #94, .T. ) ;
#104 = APPROVAL_DATE_TIME ( #123, #15 ) ;
#105 = ADVANCED_BREP_SHAPE_REPRESENTATION ( 'Web Model 43975_63221', ( #36, #210 ), #154 ) ;
#106 = ADVANCED_FACE ( 'NONE', ( #89 ), #102, .T. ) ;
#107 = APPLICATION_CONTEXT ( 'configuration controlled 3d designs of mechanical parts and assemblies' ) ;
#108 = SECURITY_CLASSIFICATION_LEVEL ( 'unclassified' ) ;
#109 = VECTOR ( 'NONE', #203, 1000.000000000000000 ) ;
#110 = ORIENTED_EDGE ( 'NONE', *, *, #87, .T. ) ;
#111 =( LENGTH_UNIT ( ) NAMED_UNIT ( * ) SI_UNIT ( .MILLI., .METRE. ) );
#112 = ORIENTED_EDGE ( 'NONE', *, *, #113, .T. ) ;
#113 = EDGE_CURVE ( 'NONE', #61, #9, #229, .T. ) ;
#114 = DIRECTION ( 'NONE',  ( 2.185478394931410600E-016, -1.000000000000000000, 0.0000000000000000000 ) ) ;
#115 = VECTOR ( 'NONE', #220, 1000.000000000000000 ) ;
#116 = PERSON ( 'UNSPECIFIED', 'UNSPECIFIED', 'UNSPECIFIED', ('UNSPECIFIED'), ('UNSPECIFIED'), ('UNSPECIFIED') ) ;
#117 = DIRECTION ( 'NONE',  ( -0.0000000000000000000, 0.0000000000000000000, 1.000000000000000000 ) ) ;
#118 = EDGE_LOOP ( 'NONE', ( #124, #83, #195, #74 ) ) ;
#119 = LOCAL_TIME ( 15, 49, 53.00000000000000000, #163 ) ;
#120 = EDGE_CURVE ( 'NONE', #33, #75, #62, .T. ) ;
#121 = DIRECTION ( 'NONE',  ( -9.106159978880877400E-017, -1.000000000000000000, 0.0000000000000000000 ) ) ;
#122 = DIRECTION ( 'NONE',  ( -0.0000000000000000000, -0.0000000000000000000, -1.000000000000000000 ) ) ;
#123 = DATE_AND_TIME ( #166, #211 ) ;
#124 = ORIENTED_EDGE ( 'NONE', *, *, #45, .T. ) ;
#125 = CALENDAR_DATE ( 2017, 1, 3 ) ;
#126 = EDGE_CURVE ( 'NONE', #138, #33, #152, .T. ) ;
#127 = APPROVAL_STATUS ( 'not_yet_approved' ) ;
#128 = DATE_TIME_ROLE ( 'classification_date' ) ;
#129 = EDGE_LOOP ( 'NONE', ( #158, #217, #59, #110 ) ) ;
#130 = PERSON_AND_ORGANIZATION ( #116, #218 ) ;
#131 = EDGE_LOOP ( 'NONE', ( #11, #88, #78, #198 ) ) ;
#132 = PERSON_AND_ORGANIZATION ( #116, #218 ) ;
#133 =( NAMED_UNIT ( * ) SI_UNIT ( $, .STERADIAN. ) SOLID_ANGLE_UNIT ( ) );
#134 = ADVANCED_FACE ( 'NONE', ( #4 ), #28, .F. ) ;
#135 = PLANE ( 'NONE',  #18 ) ;
#136 = ORIENTED_EDGE ( 'NONE', *, *, #77, .T. ) ;
#137 = COORDINATED_UNIVERSAL_TIME_OFFSET ( 5, 0, .BEHIND. ) ;
#138 = VERTEX_POINT ( 'NONE', #8 ) ;
#139 = PERSON_AND_ORGANIZATION ( #116, #218 ) ;
#140 = DIRECTION ( 'NONE',  ( -1.000000000000000000, -2.731847993664263700E-016, 0.0000000000000000000 ) ) ;
#141 = CARTESIAN_POINT ( 'NONE',  ( -152.3999999999999500, -127.0000000000000000, 0.0000000000000000000 ) ) ;
#142 = LOCAL_TIME ( 15, 49, 53.00000000000000000, #179 ) ;
#143 = LINE ( 'NONE', #172, #42 ) ;
#144 = APPROVAL_ROLE ( '' ) ;
#145 = AXIS2_PLACEMENT_3D ( 'NONE', #186, #22, #224 ) ;
#146 = ADVANCED_FACE ( 'NONE', ( #58 ), #84, .F. ) ;
#147 = VECTOR ( 'NONE', #114, 1000.000000000000000 ) ;
#148 = CARTESIAN_POINT ( 'NONE',  ( -152.4000000000000100, 127.0000000000000000, 0.0000000000000000000 ) ) ;
#149 = CARTESIAN_POINT ( 'NONE',  ( -152.3999999999999500, -127.0000000000000000, 0.0000000000000000000 ) ) ;
#150 = FACE_OUTER_BOUND ( 'NONE', #129, .T. ) ;
#151 = ORIENTED_EDGE ( 'NONE', *, *, #113, .F. ) ;
#152 = LINE ( 'NONE', #182, #109 ) ;
#153 = PLANE ( 'NONE',  #165 ) ;
#154 =( GEOMETRIC_REPRESENTATION_CONTEXT ( 3 ) GLOBAL_UNCERTAINTY_ASSIGNED_CONTEXT ( ( #10 ) ) GLOBAL_UNIT_ASSIGNED_CONTEXT ( ( #111, #232, #133 ) ) REPRESENTATION_CONTEXT ( 'NONE', 'WORKASPACE' ) );
#155 = DIRECTION ( 'NONE',  ( 1.000000000000000000, 2.731847993664263700E-016, 0.0000000000000000000 ) ) ;
#156 = DESIGN_CONTEXT ( 'detailed design', #107, 'design' ) ;
#157 = CARTESIAN_POINT ( 'NONE',  ( 152.4000000000000300, -126.9999999999999100, 1.000000000000000000 ) ) ;
#158 = ORIENTED_EDGE ( 'NONE', *, *, #191, .T. ) ;
#159 = APPROVAL_ROLE ( '' ) ;
#160 = VECTOR ( 'NONE', #3, 1000.000000000000000 ) ;
#161 = DIRECTION ( 'NONE',  ( 1.000000000000000000, 0.0000000000000000000, 0.0000000000000000000 ) ) ;
#162 = ORIENTED_EDGE ( 'NONE', *, *, #60, .F. ) ;
#163 = COORDINATED_UNIVERSAL_TIME_OFFSET ( 5, 0, .BEHIND. ) ;
#164 = AXIS2_PLACEMENT_3D ( 'NONE', #27, #121, #223 ) ;
#165 = AXIS2_PLACEMENT_3D ( 'NONE', #24, #117, #161 ) ;
#166 = CALENDAR_DATE ( 2017, 1, 3 ) ;
#167 = ORIENTED_EDGE ( 'NONE', *, *, #120, .F. ) ;
#168 = LOCAL_TIME ( 15, 49, 53.00000000000000000, #213 ) ;
#169 = DIRECTION ( 'NONE',  ( -1.000000000000000000, -1.092739197465706000E-016, 0.0000000000000000000 ) ) ;
#170 = ORIENTED_EDGE ( 'NONE', *, *, #191, .F. ) ;
#171 = PERSON_AND_ORGANIZATION ( #116, #218 ) ;
#172 = CARTESIAN_POINT ( 'NONE',  ( 152.4000000000000100, 126.9999999999999700, 1.000000000000000000 ) ) ;
#173 = APPROVAL_DATE_TIME ( #219, #81 ) ;
#174 = ADVANCED_FACE ( 'NONE', ( #150 ), #66, .F. ) ;
#175 = DATE_TIME_ROLE ( 'creation_date' ) ;
#176 = APPROVAL_PERSON_ORGANIZATION ( #226, #81, #190 ) ;
#177 = CARTESIAN_POINT ( 'NONE',  ( 0.0000000000000000000, 0.0000000000000000000, 0.0000000000000000000 ) ) ;
#178 = VECTOR ( 'NONE', #122, 1000.000000000000000 ) ;
#179 = COORDINATED_UNIVERSAL_TIME_OFFSET ( 5, 0, .BEHIND. ) ;
#180 = VECTOR ( 'NONE', #65, 1000.000000000000000 ) ;
#181 = CARTESIAN_POINT ( 'NONE',  ( 152.4000000000000100, 126.9999999999999700, 0.0000000000000000000 ) ) ;
#182 = CARTESIAN_POINT ( 'NONE',  ( -152.4000000000000100, 127.0000000000000000, 1.000000000000000000 ) ) ;
#183 = DIRECTION ( 'NONE',  ( -2.731847993664263700E-016, 1.000000000000000000, 0.0000000000000000000 ) ) ;
#184 = CARTESIAN_POINT ( 'NONE',  ( 152.4000000000000100, 126.9999999999999700, 0.0000000000000000000 ) ) ;
#185 = AXIS2_PLACEMENT_3D ( 'NONE', #64, #169, #43 ) ;
#186 = CARTESIAN_POINT ( 'NONE',  ( 0.0000000000000000000, 0.0000000000000000000, 1.000000000000000000 ) ) ;
#187 = PRODUCT_DEFINITION_SHAPE ( 'NONE', 'NONE',  #237 ) ;
#188 = VECTOR ( 'NONE', #200, 1000.000000000000000 ) ;
#189 = DIRECTION ( 'NONE',  ( 1.000000000000000000, 0.0000000000000000000, 0.0000000000000000000 ) ) ;
#190 = APPROVAL_ROLE ( '' ) ;
#191 = EDGE_CURVE ( 'NONE', #26, #16, #101, .T. ) ;
#192 = VECTOR ( 'NONE', #93, 1000.000000000000000 ) ;
#193 = FACE_OUTER_BOUND ( 'NONE', #99, .T. ) ;
#194 = CARTESIAN_POINT ( 'NONE',  ( 152.4000000000000300, -126.9999999999999100, 1.000000000000000000 ) ) ;
#195 = ORIENTED_EDGE ( 'NONE', *, *, #98, .F. ) ;
#196 = LINE ( 'NONE', #7, #236 ) ;
#197 = CARTESIAN_POINT ( 'NONE',  ( -152.4000000000000100, 127.0000000000000000, 0.0000000000000000000 ) ) ;
#198 = ORIENTED_EDGE ( 'NONE', *, *, #126, .T. ) ;
#199 = APPROVAL_DATE_TIME ( #17, #63 ) ;
#200 = DIRECTION ( 'NONE',  ( -1.092739197465705900E-016, 1.000000000000000000, -0.0000000000000000000 ) ) ;
#201 = EDGE_CURVE ( 'NONE', #75, #71, #196, .T. ) ;
#202 = CARTESIAN_POINT ( 'NONE',  ( -152.4000000000000100, 127.0000000000000000, 1.000000000000000000 ) ) ;
#203 = DIRECTION ( 'NONE',  ( -1.000000000000000000, 9.106159978880878600E-017, -0.0000000000000000000 ) ) ;
#204 = DIRECTION ( 'NONE',  ( -1.092739197465705900E-016, 1.000000000000000000, -0.0000000000000000000 ) ) ;
#205 = ORIENTED_EDGE ( 'NONE', *, *, #60, .T. ) ;
#206 = APPROVAL_PERSON_ORGANIZATION ( #20, #63, #144 ) ;
#207 = PERSON_AND_ORGANIZATION_ROLE ( 'design_owner' ) ;
#208 = PERSON_AND_ORGANIZATION_ROLE ( 'design_supplier' ) ;
#209 = AXIS2_PLACEMENT_3D ( 'NONE', #5, #183, #140 ) ;
#210 = AXIS2_PLACEMENT_3D ( 'NONE', #177, #54, #189 ) ;
#211 = LOCAL_TIME ( 15, 49, 53.00000000000000000, #29 ) ;
#212 = EDGE_LOOP ( 'NONE', ( #162, #151, #228, #170 ) ) ;
#213 = COORDINATED_UNIVERSAL_TIME_OFFSET ( 5, 0, .BEHIND. ) ;
#214 = ADVANCED_FACE ( 'NONE', ( #50 ), #153, .F. ) ;
#215 = EDGE_CURVE ( 'NONE', #71, #16, #96, .T. ) ;
#216 = CARTESIAN_POINT ( 'NONE',  ( -152.4000000000000100, 127.0000000000000000, 1.000000000000000000 ) ) ;
#217 = ORIENTED_EDGE ( 'NONE', *, *, #215, .F. ) ;
#218 = ORGANIZATION ( 'UNSPECIFIED', 'UNSPECIFIED', '' ) ;
#219 = DATE_AND_TIME ( #35, #86 ) ;
#220 = DIRECTION ( 'NONE',  ( 1.000000000000000000, 2.731847993664263700E-016, 0.0000000000000000000 ) ) ;
#221 = CC_DESIGN_APPROVAL ( #81, ( #68 ) ) ;
#222 = DIRECTION ( 'NONE',  ( -0.0000000000000000000, -0.0000000000000000000, -1.000000000000000000 ) ) ;
#223 = DIRECTION ( 'NONE',  ( 1.000000000000000000, -9.106159978880877400E-017, 0.0000000000000000000 ) ) ;
#224 = DIRECTION ( 'NONE',  ( 1.000000000000000000, 0.0000000000000000000, 0.0000000000000000000 ) ) ;
#225 = CC_DESIGN_PERSON_AND_ORGANIZATION_ASSIGNMENT ( #171, #207, ( #97 ) ) ;
#226 = PERSON_AND_ORGANIZATION ( #116, #218 ) ;
#227 = CARTESIAN_POINT ( 'NONE',  ( -152.4000000000000100, 127.0000000000000000, 1.000000000000000000 ) ) ;
#228 = ORIENTED_EDGE ( 'NONE', *, *, #45, .F. ) ;
#229 = LINE ( 'NONE', #85, #160 ) ;
#230 = APPLICATION_PROTOCOL_DEFINITION ( 'international standard', 'config_control_design', 1994, #107 ) ;
#231 = PERSON_AND_ORGANIZATION_ROLE ( 'classification_officer' ) ;
#232 =( NAMED_UNIT ( * ) PLANE_ANGLE_UNIT ( ) SI_UNIT ( $, .RADIAN. ) );
#233 = LINE ( 'NONE', #6, #100 ) ;
#234 = DIRECTION ( 'NONE',  ( 1.000000000000000000, 2.185478394931410600E-016, -0.0000000000000000000 ) ) ;
#235 = CC_DESIGN_PERSON_AND_ORGANIZATION_ASSIGNMENT ( #132, #91, ( #68 ) ) ;
#236 = VECTOR ( 'NONE', #155, 1000.000000000000000 ) ;
#237 = PRODUCT_DEFINITION ( 'UNKNOWN', '', #68, #156 ) ;
ENDSEC;
END-ISO-10303-21;
