ISO-10303-21;
HEADER;
FILE_DESCRIPTION (( 'STEP AP203' ),
    '1' );
FILE_NAME ('Web Model 47568_47570.step',
    '2017-04-26T17:12:18',
    ( '' ),
    ( '' ),
    'SwSTEP 2.0',
    'SolidWorks 2016',
    '' );
FILE_SCHEMA (( 'CONFIG_CONTROL_DESIGN' ));
ENDSEC;

DATA;
#1 = ORIENTED_EDGE ( 'NONE', *, *, #224, .T. ) ;
#2 = APPROVAL_PERSON_ORGANIZATION ( #109, #254, #21 ) ;
#3 = DIRECTION ( 'NONE',  ( -0.0000000000000000000, -0.0000000000000000000, -1.000000000000000000 ) ) ;
#4 = DIRECTION ( 'NONE',  ( -0.0000000000000000000, 0.0000000000000000000, 1.000000000000000000 ) ) ;
#5 = CARTESIAN_POINT ( 'NONE',  ( -17.50000000000000000, 0.0000000000000000000, 17.50000000000000000 ) ) ;
#6 = LINE ( 'NONE', #70, #154 ) ;
#7 = ORIENTED_EDGE ( 'NONE', *, *, #103, .F. ) ;
#8 = MANIFOLD_SOLID_BREP ( 'Boss-Extrude2', #78 ) ;
#9 = PLANE ( 'NONE',  #93 ) ;
#10 = ORIENTED_EDGE ( 'NONE', *, *, #166, .T. ) ;
#11 = EDGE_CURVE ( 'NONE', #191, #302, #65, .T. ) ;
#12 = DIRECTION ( 'NONE',  ( 0.7071067811865474600, -0.7071067811865474600, 0.0000000000000000000 ) ) ;
#13 = PLANE ( 'NONE',  #134 ) ;
#14 = LINE ( 'NONE', #5, #310 ) ;
#15 = AXIS2_PLACEMENT_3D ( 'NONE', #163, #242, #292 ) ;
#16 = DIRECTION ( 'NONE',  ( 0.0000000000000000000, 1.000000000000000000, -0.0000000000000000000 ) ) ;
#17 = AXIS2_PLACEMENT_3D ( 'NONE', #29, #240, #287 ) ;
#18 = CARTESIAN_POINT ( 'NONE',  ( 0.0000000000000000000, 17.50000000000000000, 17.50000000000000000 ) ) ;
#19 = EDGE_LOOP ( 'NONE', ( #248, #45, #153, #55 ) ) ;
#20 = CARTESIAN_POINT ( 'NONE',  ( 0.0000000000000000000, 0.0000000000000000000, 17.50000000000000000 ) ) ;
#21 = APPROVAL_ROLE ( '' ) ;
#22 = PRODUCT ( 'Web Model 47568_47570', 'Web Model 47568_47570', '', ( #84 ) ) ;
#23 = CALENDAR_DATE ( 2017, 26, 4 ) ;
#24 = VECTOR ( 'NONE', #313, 1000.000000000000000 ) ;
#25 = EDGE_CURVE ( 'NONE', #86, #160, #37, .T. ) ;
#26 = EDGE_LOOP ( 'NONE', ( #178, #317, #266, #111 ) ) ;
#27 = ORIENTED_EDGE ( 'NONE', *, *, #194, .T. ) ;
#28 = DIRECTION ( 'NONE',  ( 1.000000000000000000, 0.0000000000000000000, 0.0000000000000000000 ) ) ;
#29 = CARTESIAN_POINT ( 'NONE',  ( 0.0000000000000000000, 0.0000000000000000000, 17.50000000000000000 ) ) ;
#30 = DIRECTION ( 'NONE',  ( 0.0000000000000000000, 0.0000000000000000000, 1.000000000000000000 ) ) ;
#31 = ORIENTED_EDGE ( 'NONE', *, *, #97, .T. ) ;
#32 = PERSON_AND_ORGANIZATION ( #188, #276 ) ;
#33 = DIRECTION ( 'NONE',  ( 1.000000000000000000, 0.0000000000000000000, 0.0000000000000000000 ) ) ;
#34 = LINE ( 'NONE', #161, #24 ) ;
#35 = DIRECTION ( 'NONE',  ( -0.0000000000000000000, 0.0000000000000000000, 1.000000000000000000 ) ) ;
#36 = CARTESIAN_POINT ( 'NONE',  ( 17.50000000000000000, -17.50000000000000000, 17.50000000000000000 ) ) ;
#37 = LINE ( 'NONE', #165, #171 ) ;
#38 = VERTEX_POINT ( 'NONE', #236 ) ;
#39 = ORIENTED_EDGE ( 'NONE', *, *, #68, .T. ) ;
#40 = ADVANCED_FACE ( 'NONE', ( #74 ), #112, .T. ) ;
#41 = VECTOR ( 'NONE', #12, 1000.000000000000100 ) ;
#42 = PERSON_AND_ORGANIZATION_ROLE ( 'creator' ) ;
#43 = ORIENTED_EDGE ( 'NONE', *, *, #68, .F. ) ;
#44 = DIRECTION ( 'NONE',  ( 0.7071067811865475700, 0.7071067811865475700, -0.0000000000000000000 ) ) ;
#45 = ORIENTED_EDGE ( 'NONE', *, *, #185, .F. ) ;
#46 = LINE ( 'NONE', #100, #75 ) ;
#47 = AXIS2_PLACEMENT_3D ( 'NONE', #18, #138, #264 ) ;
#48 = ORIENTED_EDGE ( 'NONE', *, *, #185, .T. ) ;
#49 = APPLICATION_PROTOCOL_DEFINITION ( 'international standard', 'config_control_design', 1994, #198 ) ;
#50 = ORIENTED_EDGE ( 'NONE', *, *, #312, .T. ) ;
#51 = VECTOR ( 'NONE', #28, 1000.000000000000000 ) ;
#52 = CARTESIAN_POINT ( 'NONE',  ( -17.50000000000000000, 0.0000000000000000000, 17.50000000000000000 ) ) ;
#53 = ORIENTED_EDGE ( 'NONE', *, *, #224, .F. ) ;
#54 = COORDINATED_UNIVERSAL_TIME_OFFSET ( 5, 0, .BEHIND. ) ;
#55 = ORIENTED_EDGE ( 'NONE', *, *, #11, .T. ) ;
#56 = LINE ( 'NONE', #63, #51 ) ;
#57 = VERTEX_POINT ( 'NONE', #273 ) ;
#58 = DIRECTION ( 'NONE',  ( 0.0000000000000000000, 1.000000000000000000, 0.0000000000000000000 ) ) ;
#59 = ORIENTED_EDGE ( 'NONE', *, *, #312, .F. ) ;
#60 =( NAMED_UNIT ( * ) SI_UNIT ( $, .STERADIAN. ) SOLID_ANGLE_UNIT ( ) );
#61 = ORIENTED_EDGE ( 'NONE', *, *, #202, .F. ) ;
#62 = PRODUCT_DEFINITION_SHAPE ( 'NONE', 'NONE',  #297 ) ;
#63 = CARTESIAN_POINT ( 'NONE',  ( -0.0000000000000000000, 17.50000000000000000, -17.50000000000000000 ) ) ;
#64 = ORIENTED_EDGE ( 'NONE', *, *, #179, .T. ) ;
#65 = LINE ( 'NONE', #99, #177 ) ;
#66 = CARTESIAN_POINT ( 'NONE',  ( 17.50000000000000000, 0.0000000000000000000, 17.50000000000000000 ) ) ;
#67 = EDGE_LOOP ( 'NONE', ( #1, #305, #87, #117 ) ) ;
#68 = EDGE_CURVE ( 'NONE', #230, #57, #210, .T. ) ;
#69 = VECTOR ( 'NONE', #193, 1000.000000000000100 ) ;
#70 = CARTESIAN_POINT ( 'NONE',  ( -0.0000000000000000000, 0.0000000000000000000, -17.50000000000000000 ) ) ;
#71 = APPROVAL_DATE_TIME ( #301, #281 ) ;
#72 = DIRECTION ( 'NONE',  ( 0.7071067811865475700, 0.7071067811865475700, -0.0000000000000000000 ) ) ;
#73 = CARTESIAN_POINT ( 'NONE',  ( 0.0000000000000000000, 0.0000000000000000000, 17.50000000000000000 ) ) ;
#74 = FACE_OUTER_BOUND ( 'NONE', #162, .T. ) ;
#75 = VECTOR ( 'NONE', #186, 1000.000000000000000 ) ;
#76 = DIRECTION ( 'NONE',  ( 0.7071067811865474600, -0.7071067811865474600, 0.0000000000000000000 ) ) ;
#77 = ORIENTED_EDGE ( 'NONE', *, *, #103, .T. ) ;
#78 = CLOSED_SHELL ( 'NONE', ( #288, #225, #79, #212, #135 ) ) ;
#79 = ADVANCED_FACE ( 'NONE', ( #143 ), #13, .T. ) ;
#80 = COORDINATED_UNIVERSAL_TIME_OFFSET ( 5, 0, .BEHIND. ) ;
#81 = DIRECTION ( 'NONE',  ( -0.0000000000000000000, -0.0000000000000000000, -1.000000000000000000 ) ) ;
#82 = VECTOR ( 'NONE', #76, 1000.000000000000100 ) ;
#83 = EDGE_LOOP ( 'NONE', ( #39, #262, #7, #48 ) ) ;
#84 = MECHANICAL_CONTEXT ( 'NONE', #119, 'mechanical' ) ;
#85 = CARTESIAN_POINT ( 'NONE',  ( 0.0000000000000000000, -17.50000000000000000, 17.50000000000000000 ) ) ;
#86 = VERTEX_POINT ( 'NONE', #90 ) ;
#87 = ORIENTED_EDGE ( 'NONE', *, *, #97, .F. ) ;
#88 = CALENDAR_DATE ( 2017, 26, 4 ) ;
#89 = APPROVAL_STATUS ( 'not_yet_approved' ) ;
#90 = CARTESIAN_POINT ( 'NONE',  ( -17.50000000000000000, -17.50000000000000000, -17.50000000000000000 ) ) ;
#91 = ORIENTED_EDGE ( 'NONE', *, *, #220, .T. ) ;
#92 = APPROVAL_ROLE ( '' ) ;
#93 = AXIS2_PLACEMENT_3D ( 'NONE', #66, #229, #30 ) ;
#94 = DIRECTION ( 'NONE',  ( 0.0000000000000000000, 1.000000000000000000, -0.0000000000000000000 ) ) ;
#95 = EDGE_LOOP ( 'NONE', ( #140, #31, #258 ) ) ;
#96 = ORIENTED_EDGE ( 'NONE', *, *, #170, .T. ) ;
#97 = EDGE_CURVE ( 'NONE', #205, #294, #110, .T. ) ;
#98 = AXIS2_PLACEMENT_3D ( 'NONE', #20, #4, #249 ) ;
#99 = CARTESIAN_POINT ( 'NONE',  ( -17.50000000000000000, 17.50000000000000000, 17.50000000000000000 ) ) ;
#100 = CARTESIAN_POINT ( 'NONE',  ( 0.0000000000000000000, -17.50000000000000000, -17.50000000000000000 ) ) ;
#101 = VECTOR ( 'NONE', #176, 1000.000000000000000 ) ;
#102 = CARTESIAN_POINT ( 'NONE',  ( 17.50000000000000000, -17.50000000000000000, -17.50000000000000000 ) ) ;
#103 = EDGE_CURVE ( 'NONE', #158, #38, #308, .T. ) ;
#104 = ORIENTED_EDGE ( 'NONE', *, *, #261, .F. ) ;
#105 = DIRECTION ( 'NONE',  ( -0.0000000000000000000, -0.0000000000000000000, -1.000000000000000000 ) ) ;
#106 = CARTESIAN_POINT ( 'NONE',  ( 0.0000000000000000000, 0.0000000000000000000, 17.50000000000000000 ) ) ;
#107 = COORDINATED_UNIVERSAL_TIME_OFFSET ( 5, 0, .BEHIND. ) ;
#108 = CC_DESIGN_PERSON_AND_ORGANIZATION_ASSIGNMENT ( #132, #203, ( #128 ) ) ;
#109 = PERSON_AND_ORGANIZATION ( #188, #276 ) ;
#110 = LINE ( 'NONE', #272, #195 ) ;
#111 = ORIENTED_EDGE ( 'NONE', *, *, #209, .T. ) ;
#112 = PLANE ( 'NONE',  #98 ) ;
#113 = DATE_AND_TIME ( #88, #265 ) ;
#114 = DIRECTION ( 'NONE',  ( 1.000000000000000000, 0.0000000000000000000, 0.0000000000000000000 ) ) ;
#115 = DATE_AND_TIME ( #217, #318 ) ;
#116 = ORIENTED_EDGE ( 'NONE', *, *, #170, .F. ) ;
#117 = ORIENTED_EDGE ( 'NONE', *, *, #320, .T. ) ;
#118 = EDGE_CURVE ( 'NONE', #205, #275, #14, .T. ) ;
#119 = APPLICATION_CONTEXT ( 'configuration controlled 3d designs of mechanical parts and assemblies' ) ;
#120 = LOCAL_TIME ( 13, 12, 18.00000000000000000, #239 ) ;
#121 = LINE ( 'NONE', #316, #41 ) ;
#122 =( GEOMETRIC_REPRESENTATION_CONTEXT ( 3 ) GLOBAL_UNCERTAINTY_ASSIGNED_CONTEXT ( ( #127 ) ) GLOBAL_UNIT_ASSIGNED_CONTEXT ( ( #172, #282, #60 ) ) REPRESENTATION_CONTEXT ( 'NONE', 'WORKASPACE' ) );
#123 = CARTESIAN_POINT ( 'NONE',  ( 17.50000000000000000, -17.50000000000000000, 17.50000000000000000 ) ) ;
#124 = CC_DESIGN_PERSON_AND_ORGANIZATION_ASSIGNMENT ( #32, #246, ( #128 ) ) ;
#125 = VECTOR ( 'NONE', #126, 1000.000000000000000 ) ;
#126 = DIRECTION ( 'NONE',  ( -0.0000000000000000000, -0.0000000000000000000, -1.000000000000000000 ) ) ;
#127 = UNCERTAINTY_MEASURE_WITH_UNIT (LENGTH_MEASURE( 1.000000000000000100E-005 ), #172, 'distance_accuracy_value', 'NONE');
#128 = PRODUCT_DEFINITION_FORMATION_WITH_SPECIFIED_SOURCE ( 'ANY', '', #22, .NOT_KNOWN. ) ;
#129 = CARTESIAN_POINT ( 'NONE',  ( 17.50000000000000000, -17.50000000000000000, -17.50000000000000000 ) ) ;
#130 = SECURITY_CLASSIFICATION_LEVEL ( 'unclassified' ) ;
#131 = PERSON_AND_ORGANIZATION ( #188, #276 ) ;
#132 = PERSON_AND_ORGANIZATION ( #188, #276 ) ;
#133 = PERSON_AND_ORGANIZATION ( #188, #276 ) ;
#134 = AXIS2_PLACEMENT_3D ( 'NONE', #106, #72, #200 ) ;
#135 = ADVANCED_FACE ( 'NONE', ( #284 ), #192, .F. ) ;
#136 = PERSON_AND_ORGANIZATION_ROLE ( 'classification_officer' ) ;
#137 = ADVANCED_FACE ( 'NONE', ( #255 ), #289, .T. ) ;
#138 = DIRECTION ( 'NONE',  ( 0.0000000000000000000, 1.000000000000000000, 0.0000000000000000000 ) ) ;
#139 = APPROVAL_DATE_TIME ( #115, #254 ) ;
#140 = ORIENTED_EDGE ( 'NONE', *, *, #118, .F. ) ;
#141 = DIRECTION ( 'NONE',  ( 0.0000000000000000000, 0.0000000000000000000, 1.000000000000000000 ) ) ;
#142 = AXIS2_PLACEMENT_3D ( 'NONE', #73, #44, #227 ) ;
#143 = FACE_OUTER_BOUND ( 'NONE', #314, .T. ) ;
#144 = EDGE_LOOP ( 'NONE', ( #104, #278, #43 ) ) ;
#145 = ORIENTED_EDGE ( 'NONE', *, *, #25, .T. ) ;
#146 = AXIS2_PLACEMENT_3D ( 'NONE', #174, #35, #114 ) ;
#147 = DIRECTION ( 'NONE',  ( 0.0000000000000000000, 1.000000000000000000, -0.0000000000000000000 ) ) ;
#148 = CARTESIAN_POINT ( 'NONE',  ( 0.0000000000000000000, 17.50000000000000000, 17.50000000000000000 ) ) ;
#149 = PERSON_AND_ORGANIZATION_ROLE ( 'design_owner' ) ;
#150 = FACE_OUTER_BOUND ( 'NONE', #95, .T. ) ;
#151 = VECTOR ( 'NONE', #147, 1000.000000000000000 ) ;
#152 = MANIFOLD_SOLID_BREP ( 'Boss-Extrude3', #204 ) ;
#153 = ORIENTED_EDGE ( 'NONE', *, *, #220, .F. ) ;
#154 = VECTOR ( 'NONE', #157, 1000.000000000000100 ) ;
#155 = LINE ( 'NONE', #148, #253 ) ;
#156 = DIRECTION ( 'NONE',  ( 0.0000000000000000000, -0.0000000000000000000, 1.000000000000000000 ) ) ;
#157 = DIRECTION ( 'NONE',  ( 0.7071067811865474600, -0.7071067811865474600, 0.0000000000000000000 ) ) ;
#158 = VERTEX_POINT ( 'NONE', #259 ) ;
#159 = APPROVAL ( #89, 'UNSPECIFIED' ) ;
#160 = VERTEX_POINT ( 'NONE', #256 ) ;
#161 = CARTESIAN_POINT ( 'NONE',  ( 17.50000000000000000, 17.50000000000000000, 17.50000000000000000 ) ) ;
#162 = EDGE_LOOP ( 'NONE', ( #91, #77, #59 ) ) ;
#163 = CARTESIAN_POINT ( 'NONE',  ( 0.0000000000000000000, 0.0000000000000000000, -17.50000000000000000 ) ) ;
#164 = DIRECTION ( 'NONE',  ( 1.000000000000000000, 0.0000000000000000000, 0.0000000000000000000 ) ) ;
#165 = CARTESIAN_POINT ( 'NONE',  ( -17.50000000000000000, 0.0000000000000000000, -17.50000000000000000 ) ) ;
#166 = EDGE_CURVE ( 'NONE', #294, #211, #251, .T. ) ;
#167 = FACE_OUTER_BOUND ( 'NONE', #144, .T. ) ;
#168 = CARTESIAN_POINT ( 'NONE',  ( -17.50000000000000000, 17.50000000000000000, 17.50000000000000000 ) ) ;
#169 = CARTESIAN_POINT ( 'NONE',  ( -17.50000000000000000, 17.50000000000000000, -17.50000000000000000 ) ) ;
#170 = EDGE_CURVE ( 'NONE', #160, #211, #6, .T. ) ;
#171 = VECTOR ( 'NONE', #291, 1000.000000000000000 ) ;
#172 =( LENGTH_UNIT ( ) NAMED_UNIT ( * ) SI_UNIT ( .MILLI., .METRE. ) );
#173 = AXIS2_PLACEMENT_3D ( 'NONE', #85, #58, #156 ) ;
#174 = CARTESIAN_POINT ( 'NONE',  ( 0.0000000000000000000, 0.0000000000000000000, -17.50000000000000000 ) ) ;
#175 = VECTOR ( 'NONE', #105, 1000.000000000000000 ) ;
#176 = DIRECTION ( 'NONE',  ( -0.0000000000000000000, -0.0000000000000000000, -1.000000000000000000 ) ) ;
#177 = VECTOR ( 'NONE', #81, 1000.000000000000000 ) ;
#178 = ORIENTED_EDGE ( 'NONE', *, *, #25, .F. ) ;
#179 = EDGE_CURVE ( 'NONE', #275, #294, #296, .T. ) ;
#180 = AXIS2_PLACEMENT_3D ( 'NONE', #52, #311, #306 ) ;
#181 = PERSON_AND_ORGANIZATION ( #188, #276 ) ;
#182 = APPROVAL_STATUS ( 'not_yet_approved' ) ;
#183 = LINE ( 'NONE', #36, #234 ) ;
#184 = LOCAL_TIME ( 13, 12, 18.00000000000000000, #80 ) ;
#185 = EDGE_CURVE ( 'NONE', #158, #230, #183, .T. ) ;
#186 = DIRECTION ( 'NONE',  ( 1.000000000000000000, 0.0000000000000000000, 0.0000000000000000000 ) ) ;
#187 = APPLICATION_PROTOCOL_DEFINITION ( 'international standard', 'config_control_design', 1994, #119 ) ;
#188 = PERSON ( 'UNSPECIFIED', 'UNSPECIFIED', 'UNSPECIFIED', ('UNSPECIFIED'), ('UNSPECIFIED'), ('UNSPECIFIED') ) ;
#189 = DATE_AND_TIME ( #201, #120 ) ;
#190 = CARTESIAN_POINT ( 'NONE',  ( 0.0000000000000000000, 0.0000000000000000000, 17.50000000000000000 ) ) ;
#191 = VERTEX_POINT ( 'NONE', #168 ) ;
#192 = PLANE ( 'NONE',  #146 ) ;
#193 = DIRECTION ( 'NONE',  ( 0.7071067811865474600, -0.7071067811865474600, 0.0000000000000000000 ) ) ;
#194 = EDGE_CURVE ( 'NONE', #38, #57, #34, .T. ) ;
#195 = VECTOR ( 'NONE', #269, 1000.000000000000000 ) ;
#196 = LINE ( 'NONE', #304, #69 ) ;
#197 = LINE ( 'NONE', #295, #125 ) ;
#198 = APPLICATION_CONTEXT ( 'configuration controlled 3d designs of mechanical parts and assemblies' ) ;
#199 = ADVANCED_FACE ( 'NONE', ( #167 ), #268, .F. ) ;
#200 = DIRECTION ( 'NONE',  ( -0.7071067811865474600, 0.7071067811865474600, 0.0000000000000000000 ) ) ;
#201 = CALENDAR_DATE ( 2017, 26, 4 ) ;
#202 = EDGE_CURVE ( 'NONE', #302, #57, #56, .T. ) ;
#203 = PERSON_AND_ORGANIZATION_ROLE ( 'creator' ) ;
#204 = CLOSED_SHELL ( 'NONE', ( #280, #257, #137, #40, #199 ) ) ;
#205 = VERTEX_POINT ( 'NONE', #252 ) ;
#206 = CARTESIAN_POINT ( 'NONE',  ( 17.50000000000000000, 0.0000000000000000000, 17.50000000000000000 ) ) ;
#207 = FACE_OUTER_BOUND ( 'NONE', #19, .T. ) ;
#208 = APPROVAL_PERSON_ORGANIZATION ( #131, #159, #233 ) ;
#209 = EDGE_CURVE ( 'NONE', #275, #160, #271, .T. ) ;
#210 = LINE ( 'NONE', #223, #151 ) ;
#211 = VERTEX_POINT ( 'NONE', #129 ) ;
#212 = ADVANCED_FACE ( 'NONE', ( #150 ), #244, .T. ) ;
#213 = ORIENTED_EDGE ( 'NONE', *, *, #209, .F. ) ;
#214 = APPROVAL_STATUS ( 'not_yet_approved' ) ;
#215 = PLANE ( 'NONE',  #180 ) ;
#216 = PLANE ( 'NONE',  #173 ) ;
#217 = CALENDAR_DATE ( 2017, 26, 4 ) ;
#218 = ORIENTED_EDGE ( 'NONE', *, *, #11, .F. ) ;
#219 = AXIS2_PLACEMENT_3D ( 'NONE', #279, #141, #164 ) ;
#220 = EDGE_CURVE ( 'NONE', #191, #158, #196, .T. ) ;
#221 = PERSON_AND_ORGANIZATION ( #188, #276 ) ;
#222 = SHAPE_DEFINITION_REPRESENTATION ( #62, #267 ) ;
#223 = CARTESIAN_POINT ( 'NONE',  ( 17.50000000000000000, 0.0000000000000000000, -17.50000000000000000 ) ) ;
#224 = EDGE_CURVE ( 'NONE', #86, #211, #46, .T. ) ;
#225 = ADVANCED_FACE ( 'NONE', ( #303 ), #216, .F. ) ;
#226 = CC_DESIGN_APPROVAL ( #159, ( #128 ) ) ;
#227 = DIRECTION ( 'NONE',  ( -0.7071067811865474600, 0.7071067811865474600, 0.0000000000000000000 ) ) ;
#228 = CC_DESIGN_APPROVAL ( #254, ( #235 ) ) ;
#229 = DIRECTION ( 'NONE',  ( -1.000000000000000000, 0.0000000000000000000, 0.0000000000000000000 ) ) ;
#230 = VERTEX_POINT ( 'NONE', #102 ) ;
#231 = CALENDAR_DATE ( 2017, 26, 4 ) ;
#232 = CC_DESIGN_SECURITY_CLASSIFICATION ( #235, ( #128 ) ) ;
#233 = APPROVAL_ROLE ( '' ) ;
#234 = VECTOR ( 'NONE', #3, 1000.000000000000000 ) ;
#235 = SECURITY_CLASSIFICATION ( '', '', #130 ) ;
#236 = CARTESIAN_POINT ( 'NONE',  ( 17.50000000000000000, 17.50000000000000000, 17.50000000000000000 ) ) ;
#237 = CARTESIAN_POINT ( 'NONE',  ( -17.50000000000000000, 17.50000000000000000, 17.50000000000000000 ) ) ;
#238 = FACE_OUTER_BOUND ( 'NONE', #83, .T. ) ;
#239 = COORDINATED_UNIVERSAL_TIME_OFFSET ( 5, 0, .BEHIND. ) ;
#240 = DIRECTION ( 'NONE',  ( -0.0000000000000000000, 0.0000000000000000000, 1.000000000000000000 ) ) ;
#241 = CC_DESIGN_PERSON_AND_ORGANIZATION_ASSIGNMENT ( #133, #136, ( #235 ) ) ;
#242 = DIRECTION ( 'NONE',  ( -0.0000000000000000000, 0.0000000000000000000, 1.000000000000000000 ) ) ;
#243 = EDGE_LOOP ( 'NONE', ( #145, #96, #53 ) ) ;
#244 = PLANE ( 'NONE',  #17 ) ;
#245 = CC_DESIGN_DATE_AND_TIME_ASSIGNMENT ( #113, #260, ( #297 ) ) ;
#246 = PERSON_AND_ORGANIZATION_ROLE ( 'design_supplier' ) ;
#247 = CC_DESIGN_DATE_AND_TIME_ASSIGNMENT ( #321, #300, ( #235 ) ) ;
#248 = ORIENTED_EDGE ( 'NONE', *, *, #261, .T. ) ;
#249 = DIRECTION ( 'NONE',  ( 1.000000000000000000, 0.0000000000000000000, 0.0000000000000000000 ) ) ;
#250 = CC_DESIGN_PERSON_AND_ORGANIZATION_ASSIGNMENT ( #221, #42, ( #297 ) ) ;
#251 = LINE ( 'NONE', #290, #101 ) ;
#252 = CARTESIAN_POINT ( 'NONE',  ( -17.50000000000000000, -17.50000000000000000, 17.50000000000000000 ) ) ;
#253 = VECTOR ( 'NONE', #33, 1000.000000000000000 ) ;
#254 = APPROVAL ( #214, 'UNSPECIFIED' ) ;
#255 = FACE_OUTER_BOUND ( 'NONE', #283, .T. ) ;
#256 = CARTESIAN_POINT ( 'NONE',  ( -17.50000000000000000, 17.50000000000000000, -17.50000000000000000 ) ) ;
#257 = ADVANCED_FACE ( 'NONE', ( #238 ), #9, .F. ) ;
#258 = ORIENTED_EDGE ( 'NONE', *, *, #179, .F. ) ;
#259 = CARTESIAN_POINT ( 'NONE',  ( 17.50000000000000000, -17.50000000000000000, 17.50000000000000000 ) ) ;
#260 = DATE_TIME_ROLE ( 'creation_date' ) ;
#261 = EDGE_CURVE ( 'NONE', #302, #230, #121, .T. ) ;
#262 = ORIENTED_EDGE ( 'NONE', *, *, #194, .F. ) ;
#263 = CC_DESIGN_APPROVAL ( #281, ( #297 ) ) ;
#264 = DIRECTION ( 'NONE',  ( 0.0000000000000000000, -0.0000000000000000000, 1.000000000000000000 ) ) ;
#265 = LOCAL_TIME ( 13, 12, 18.00000000000000000, #107 ) ;
#266 = ORIENTED_EDGE ( 'NONE', *, *, #118, .T. ) ;
#267 = ADVANCED_BREP_SHAPE_REPRESENTATION ( 'Web Model 47568_47570', ( #8, #152, #219 ), #122 ) ;
#268 = PLANE ( 'NONE',  #15 ) ;
#269 = DIRECTION ( 'NONE',  ( 1.000000000000000000, 0.0000000000000000000, 0.0000000000000000000 ) ) ;
#270 = FACE_OUTER_BOUND ( 'NONE', #26, .T. ) ;
#271 = LINE ( 'NONE', #237, #175 ) ;
#272 = CARTESIAN_POINT ( 'NONE',  ( 0.0000000000000000000, -17.50000000000000000, 17.50000000000000000 ) ) ;
#273 = CARTESIAN_POINT ( 'NONE',  ( 17.50000000000000000, 17.50000000000000000, -17.50000000000000000 ) ) ;
#274 = APPROVAL_PERSON_ORGANIZATION ( #181, #281, #92 ) ;
#275 = VERTEX_POINT ( 'NONE', #277 ) ;
#276 = ORGANIZATION ( 'UNSPECIFIED', 'UNSPECIFIED', '' ) ;
#277 = CARTESIAN_POINT ( 'NONE',  ( -17.50000000000000000, 17.50000000000000000, 17.50000000000000000 ) ) ;
#278 = ORIENTED_EDGE ( 'NONE', *, *, #202, .T. ) ;
#279 = CARTESIAN_POINT ( 'NONE',  ( 0.0000000000000000000, 0.0000000000000000000, 0.0000000000000000000 ) ) ;
#280 = ADVANCED_FACE ( 'NONE', ( #207 ), #286, .F. ) ;
#281 = APPROVAL ( #182, 'UNSPECIFIED' ) ;
#282 =( NAMED_UNIT ( * ) PLANE_ANGLE_UNIT ( ) SI_UNIT ( $, .RADIAN. ) );
#283 = EDGE_LOOP ( 'NONE', ( #61, #218, #50, #27 ) ) ;
#284 = FACE_OUTER_BOUND ( 'NONE', #243, .T. ) ;
#285 = VECTOR ( 'NONE', #16, 1000.000000000000000 ) ;
#286 = PLANE ( 'NONE',  #142 ) ;
#287 = DIRECTION ( 'NONE',  ( 1.000000000000000000, 0.0000000000000000000, 0.0000000000000000000 ) ) ;
#288 = ADVANCED_FACE ( 'NONE', ( #270 ), #215, .T. ) ;
#289 = PLANE ( 'NONE',  #47 ) ;
#290 = CARTESIAN_POINT ( 'NONE',  ( 17.50000000000000000, -17.50000000000000000, 17.50000000000000000 ) ) ;
#291 = DIRECTION ( 'NONE',  ( 0.0000000000000000000, 1.000000000000000000, -0.0000000000000000000 ) ) ;
#292 = DIRECTION ( 'NONE',  ( 1.000000000000000000, 0.0000000000000000000, 0.0000000000000000000 ) ) ;
#293 = COORDINATED_UNIVERSAL_TIME_OFFSET ( 5, 0, .BEHIND. ) ;
#294 = VERTEX_POINT ( 'NONE', #123 ) ;
#295 = CARTESIAN_POINT ( 'NONE',  ( -17.50000000000000000, -17.50000000000000000, 17.50000000000000000 ) ) ;
#296 = LINE ( 'NONE', #190, #82 ) ;
#297 = PRODUCT_DEFINITION ( 'UNKNOWN', '', #128, #319 ) ;
#298 = LOCAL_TIME ( 13, 12, 18.00000000000000000, #54 ) ;
#299 = PERSON_AND_ORGANIZATION ( #188, #276 ) ;
#300 = DATE_TIME_ROLE ( 'classification_date' ) ;
#301 = DATE_AND_TIME ( #231, #298 ) ;
#302 = VERTEX_POINT ( 'NONE', #169 ) ;
#303 = FACE_OUTER_BOUND ( 'NONE', #67, .T. ) ;
#304 = CARTESIAN_POINT ( 'NONE',  ( 0.0000000000000000000, 0.0000000000000000000, 17.50000000000000000 ) ) ;
#305 = ORIENTED_EDGE ( 'NONE', *, *, #166, .F. ) ;
#306 = DIRECTION ( 'NONE',  ( 0.0000000000000000000, 0.0000000000000000000, 1.000000000000000000 ) ) ;
#307 = APPROVAL_DATE_TIME ( #189, #159 ) ;
#308 = LINE ( 'NONE', #206, #285 ) ;
#309 = PRODUCT_RELATED_PRODUCT_CATEGORY ( 'detail', '', ( #22 ) ) ;
#310 = VECTOR ( 'NONE', #94, 1000.000000000000000 ) ;
#311 = DIRECTION ( 'NONE',  ( -1.000000000000000000, 0.0000000000000000000, 0.0000000000000000000 ) ) ;
#312 = EDGE_CURVE ( 'NONE', #191, #38, #155, .T. ) ;
#313 = DIRECTION ( 'NONE',  ( -0.0000000000000000000, -0.0000000000000000000, -1.000000000000000000 ) ) ;
#314 = EDGE_LOOP ( 'NONE', ( #116, #213, #64, #10 ) ) ;
#315 = CC_DESIGN_PERSON_AND_ORGANIZATION_ASSIGNMENT ( #299, #149, ( #22 ) ) ;
#316 = CARTESIAN_POINT ( 'NONE',  ( -0.0000000000000000000, 0.0000000000000000000, -17.50000000000000000 ) ) ;
#317 = ORIENTED_EDGE ( 'NONE', *, *, #320, .F. ) ;
#318 = LOCAL_TIME ( 13, 12, 18.00000000000000000, #293 ) ;
#319 = DESIGN_CONTEXT ( 'detailed design', #198, 'design' ) ;
#320 = EDGE_CURVE ( 'NONE', #205, #86, #197, .T. ) ;
#321 = DATE_AND_TIME ( #23, #184 ) ;
ENDSEC;
END-ISO-10303-21;
