ISO-10303-21;
HEADER;
FILE_DESCRIPTION (( 'STEP AP203' ),
    '1' );
FILE_NAME ('Web Model 11856_17295.step',
    '2021-04-09T13:13:30',
    ( '' ),
    ( '' ),
    'SwSTEP 2.0',
    'SolidWorks 2018',
    '' );
FILE_SCHEMA (( 'CONFIG_CONTROL_DESIGN' ));
ENDSEC;

DATA;
#1 = APPLICATION_CONTEXT ( 'configuration controlled 3d designs of mechanical parts and assemblies' ) ;
#2 = CARTESIAN_POINT ( 'NONE',  ( 2.750000000000020872, 0.000000000000000000, 0.000000000000000000 ) ) ;
#3 = EDGE_LOOP ( 'NONE', ( #13, #103 ) ) ;
#4 = CARTESIAN_POINT ( 'NONE',  ( -3.000000000000000000, 0.000000000000000000, 0.000000000000000000 ) ) ;
#5 = PERSON_AND_ORGANIZATION_ROLE ( 'design_owner' ) ;
#6 = ORIENTED_EDGE ( 'NONE', *, *, #152, .T. ) ;
#7 = CARTESIAN_POINT ( 'NONE',  ( 3.000000000000000000, 0.000000000000000000, 49.75000000000002842 ) ) ;
#8 = DIRECTION ( 'NONE',  ( 1.000000000000000000, -0.000000000000000000, -0.000000000000000000 ) ) ;
#9 = LOCAL_TIME ( 9, 13, 30.00000000000000000, #81 ) ;
#10 = CIRCLE ( 'NONE', #260, 50.00000000000000000 ) ;
#11 = VERTEX_POINT ( 'NONE', #254 ) ;
#12 = VECTOR ( 'NONE', #219, 1000.000000000000000 ) ;
#13 = ORIENTED_EDGE ( 'NONE', *, *, #170, .T. ) ;
#14 = DIRECTION ( 'NONE',  ( -1.000000000000000000, 0.000000000000000000, 0.000000000000000000 ) ) ;
#15 = EDGE_CURVE ( 'NONE', #174, #86, #149, .T. ) ;
#16 = DIRECTION ( 'NONE',  ( -1.000000000000000000, -0.000000000000000000, -0.000000000000000000 ) ) ;
#17 = PLANE ( 'NONE',  #146 ) ;
#18 = ORIENTED_EDGE ( 'NONE', *, *, #60, .T. ) ;
#19 = AXIS2_PLACEMENT_3D ( 'NONE', #32, #266, #65 ) ;
#20 = VECTOR ( 'NONE', #57, 999.9999999999998863 ) ;
#21 = ORIENTED_EDGE ( 'NONE', *, *, #45, .T. ) ;
#22 = CARTESIAN_POINT ( 'NONE',  ( -2.750000000000006661, 0.000000000000000000, 50.00000000000000000 ) ) ;
#23 = DIRECTION ( 'NONE',  ( 0.000000000000000000, 0.000000000000000000, -1.000000000000000000 ) ) ;
#24 = AXIS2_PLACEMENT_3D ( 'NONE', #87, #121, #189 ) ;
#25 = APPROVAL_ROLE ( '' ) ;
#26 = AXIS2_PLACEMENT_3D ( 'NONE', #106, #8, #52 ) ;
#27 = PLANE ( 'NONE',  #122 ) ;
#28 = DIRECTION ( 'NONE',  ( -1.000000000000000000, 0.000000000000000000, 0.000000000000000000 ) ) ;
#29 = LINE ( 'NONE', #127, #176 ) ;
#30 = VERTEX_POINT ( 'NONE', #235 ) ;
#31 = CARTESIAN_POINT ( 'NONE',  ( -2.750000000000006661, 6.123233995736766085E-15, -50.00000000000000000 ) ) ;
#32 = CARTESIAN_POINT ( 'NONE',  ( 3.000000000000000000, 0.000000000000000000, 0.000000000000000000 ) ) ;
#33 = PERSON_AND_ORGANIZATION ( #58, #184 ) ;
#34 = COORDINATED_UNIVERSAL_TIME_OFFSET ( 5, 0, .BEHIND. ) ;
#35 = ADVANCED_FACE ( 'NONE', ( #125 ), #242, .T. ) ;
#36 = CIRCLE ( 'NONE', #40, 50.00000000000000000 ) ;
#37 = ORIENTED_EDGE ( 'NONE', *, *, #15, .T. ) ;
#38 = AXIS2_PLACEMENT_3D ( 'NONE', #247, #14, #161 ) ;
#39 = CALENDAR_DATE ( 2021, 9, 4 ) ;
#40 = AXIS2_PLACEMENT_3D ( 'NONE', #80, #230, #270 ) ;
#41 = LOCAL_TIME ( 9, 13, 30.00000000000000000, #109 ) ;
#42 = FACE_OUTER_BOUND ( 'NONE', #3, .T. ) ;
#43 = APPROVAL_ROLE ( '' ) ;
#44 = CALENDAR_DATE ( 2021, 9, 4 ) ;
#45 = EDGE_CURVE ( 'NONE', #116, #30, #10, .T. ) ;
#46 = APPLICATION_PROTOCOL_DEFINITION ( 'international standard', 'config_control_design', 1994, #1 ) ;
#47 = PERSON_AND_ORGANIZATION ( #58, #184 ) ;
#48 = AXIS2_PLACEMENT_3D ( 'NONE', #98, #92, #66 ) ;
#49 = DATE_TIME_ROLE ( 'classification_date' ) ;
#50 = CARTESIAN_POINT ( 'NONE',  ( -3.000000000000000000, 6.107925910747424192E-15, 49.75000000000000711 ) ) ;
#51 = CIRCLE ( 'NONE', #78, 50.00000000000000000 ) ;
#52 = DIRECTION ( 'NONE',  ( 0.000000000000000000, 0.000000000000000000, -1.000000000000000000 ) ) ;
#53 = EDGE_LOOP ( 'NONE', ( #73, #21, #134, #224 ) ) ;
#54 = AXIS2_PLACEMENT_3D ( 'NONE', #194, #71, #133 ) ;
#55 = APPROVAL_DATE_TIME ( #259, #217 ) ;
#56 = ORIENTED_EDGE ( 'NONE', *, *, #142, .F. ) ;
#57 = DIRECTION ( 'NONE',  ( -0.7071067811865574537, 0.000000000000000000, 0.7071067811865376918 ) ) ;
#58 = PERSON ( 'UNSPECIFIED', 'UNSPECIFIED', 'UNSPECIFIED', ('UNSPECIFIED'), ('UNSPECIFIED'), ('UNSPECIFIED') ) ;
#59 = COORDINATED_UNIVERSAL_TIME_OFFSET ( 5, 0, .BEHIND. ) ;
#60 = EDGE_CURVE ( 'NONE', #243, #174, #218, .T. ) ;
#61 = EDGE_LOOP ( 'NONE', ( #187, #145, #37, #168 ) ) ;
#62 = APPROVAL_DATE_TIME ( #241, #108 ) ;
#63 = EDGE_LOOP ( 'NONE', ( #79, #267, #18, #177 ) ) ;
#64 = ORIENTED_EDGE ( 'NONE', *, *, #245, .T. ) ;
#65 = DIRECTION ( 'NONE',  ( 0.000000000000000000, 0.000000000000000000, -1.000000000000000000 ) ) ;
#66 = DIRECTION ( 'NONE',  ( 1.000000000000000000, 0.000000000000000000, 0.000000000000000000 ) ) ;
#67 = PERSON_AND_ORGANIZATION_ROLE ( 'creator' ) ;
#68 = ORIENTED_EDGE ( 'NONE', *, *, #221, .F. ) ;
#69 = APPLICATION_CONTEXT ( 'configuration controlled 3d designs of mechanical parts and assemblies' ) ;
#70 = ADVANCED_BREP_SHAPE_REPRESENTATION ( 'Web Model 11856_17295', ( #166, #48 ), #239 ) ;
#71 = DIRECTION ( 'NONE',  ( 1.000000000000000000, 0.000000000000000000, 0.000000000000000000 ) ) ;
#72 = LOCAL_TIME ( 9, 13, 30.00000000000000000, #34 ) ;
#73 = ORIENTED_EDGE ( 'NONE', *, *, #199, .F. ) ;
#74 = CARTESIAN_POINT ( 'NONE',  ( 2.750000000000020872, 0.000000000000000000, 0.000000000000000000 ) ) ;
#75 = APPROVAL_DATE_TIME ( #229, #188 ) ;
#76 = CYLINDRICAL_SURFACE ( 'NONE', #94, 50.00000000000000000 ) ;
#77 = CONICAL_SURFACE ( 'NONE', #83, 49.75000000000002842, 0.7853981633974344012 ) ;
#78 = AXIS2_PLACEMENT_3D ( 'NONE', #74, #226, #178 ) ;
#79 = ORIENTED_EDGE ( 'NONE', *, *, #165, .F. ) ;
#80 = CARTESIAN_POINT ( 'NONE',  ( -2.750000000000006661, 0.000000000000000000, 0.000000000000000000 ) ) ;
#81 = COORDINATED_UNIVERSAL_TIME_OFFSET ( 5, 0, .BEHIND. ) ;
#82 = PRODUCT_DEFINITION_SHAPE ( 'NONE', 'NONE',  #138 ) ;
#83 = AXIS2_PLACEMENT_3D ( 'NONE', #220, #28, #223 ) ;
#84 = VERTEX_POINT ( 'NONE', #50 ) ;
#85 = FACE_OUTER_BOUND ( 'NONE', #249, .T. ) ;
#86 = VERTEX_POINT ( 'NONE', #22 ) ;
#87 = CARTESIAN_POINT ( 'NONE',  ( 3.000000000000000000, 0.000000000000000000, 0.000000000000000000 ) ) ;
#88 = CARTESIAN_POINT ( 'NONE',  ( 2.750000000000020872, 6.123233995736766085E-15, -50.00000000000000000 ) ) ;
#89 = SHAPE_DEFINITION_REPRESENTATION ( #82, #70 ) ;
#90 = CIRCLE ( 'NONE', #113, 49.75000000000000711 ) ;
#91 = ORIENTED_EDGE ( 'NONE', *, *, #170, .F. ) ;
#92 = DIRECTION ( 'NONE',  ( 0.000000000000000000, 0.000000000000000000, 1.000000000000000000 ) ) ;
#93 = ADVANCED_FACE ( 'NONE', ( #248 ), #99, .T. ) ;
#94 = AXIS2_PLACEMENT_3D ( 'NONE', #120, #16, #182 ) ;
#95 = CALENDAR_DATE ( 2021, 9, 4 ) ;
#96 = CALENDAR_DATE ( 2021, 9, 4 ) ;
#97 = CARTESIAN_POINT ( 'NONE',  ( 3.000000000000000000, 6.123233995736766085E-15, -50.00000000000000000 ) ) ;
#98 = CARTESIAN_POINT ( 'NONE',  ( 0.000000000000000000, 0.000000000000000000, 0.000000000000000000 ) ) ;
#99 = CONICAL_SURFACE ( 'NONE', #232, 50.00000000000000000, 0.7853981633974482790 ) ;
#100 = DATE_TIME_ROLE ( 'creation_date' ) ;
#101 = CALENDAR_DATE ( 2021, 9, 4 ) ;
#102 = SECURITY_CLASSIFICATION ( '', '', #151 ) ;
#103 = ORIENTED_EDGE ( 'NONE', *, *, #181, .T. ) ;
#104 = PERSON_AND_ORGANIZATION_ROLE ( 'classification_officer' ) ;
#105 = APPROVAL_STATUS ( 'not_yet_approved' ) ;
#106 = CARTESIAN_POINT ( 'NONE',  ( -2.750000000000006661, 0.000000000000000000, 0.000000000000000000 ) ) ;
#107 = CC_DESIGN_PERSON_AND_ORGANIZATION_ASSIGNMENT ( #160, #5, ( #227 ) ) ;
#108 = APPROVAL ( #167, 'UNSPECIFIED' ) ;
#109 = COORDINATED_UNIVERSAL_TIME_OFFSET ( 5, 0, .BEHIND. ) ;
#110 = DATE_AND_TIME ( #39, #9 ) ;
#111 = CARTESIAN_POINT ( 'NONE',  ( -2.750000000000006661, 6.123233995736766085E-15, 50.00000000000000000 ) ) ;
#112 = ORIENTED_EDGE ( 'NONE', *, *, #142, .T. ) ;
#113 = AXIS2_PLACEMENT_3D ( 'NONE', #274, #141, #164 ) ;
#114 = CC_DESIGN_DATE_AND_TIME_ASSIGNMENT ( #207, #49, ( #102 ) ) ;
#115 = VECTOR ( 'NONE', #251, 1000.000000000000000 ) ;
#116 = VERTEX_POINT ( 'NONE', #88 ) ;
#117 = DIRECTION ( 'NONE',  ( 1.000000000000000000, 0.000000000000000000, 0.000000000000000000 ) ) ;
#118 = APPLICATION_PROTOCOL_DEFINITION ( 'international standard', 'config_control_design', 1994, #69 ) ;
#119 = APPROVAL_PERSON_ORGANIZATION ( #33, #108, #43 ) ;
#120 = CARTESIAN_POINT ( 'NONE',  ( 3.000000000000000000, 0.000000000000000000, 0.000000000000000000 ) ) ;
#121 = DIRECTION ( 'NONE',  ( -1.000000000000000000, -0.000000000000000000, -0.000000000000000000 ) ) ;
#122 = AXIS2_PLACEMENT_3D ( 'NONE', #153, #193, #240 ) ;
#123 = UNCERTAINTY_MEASURE_WITH_UNIT (LENGTH_MEASURE( 1.000000000000000082E-05 ), #228, 'distance_accuracy_value', 'NONE');
#124 = FACE_OUTER_BOUND ( 'NONE', #53, .T. ) ;
#125 = FACE_OUTER_BOUND ( 'NONE', #61, .T. ) ;
#126 = DIRECTION ( 'NONE',  ( 0.000000000000000000, 0.000000000000000000, -1.000000000000000000 ) ) ;
#127 = CARTESIAN_POINT ( 'NONE',  ( 3.000000000000000000, 6.092617825758085454E-15, -49.75000000000002842 ) ) ;
#128 = PERSON_AND_ORGANIZATION ( #58, #184 ) ;
#129 = ORIENTED_EDGE ( 'NONE', *, *, #245, .F. ) ;
#130 = DIRECTION ( 'NONE',  ( -0.7071067811865574537, 8.659560562354813296E-17, -0.7071067811865376918 ) ) ;
#131 = PERSON_AND_ORGANIZATION_ROLE ( 'creator' ) ;
#132 = LINE ( 'NONE', #111, #269 ) ;
#133 = DIRECTION ( 'NONE',  ( 0.000000000000000000, 0.000000000000000000, -1.000000000000000000 ) ) ;
#134 = ORIENTED_EDGE ( 'NONE', *, *, #156, .T. ) ;
#135 = CARTESIAN_POINT ( 'NONE',  ( -3.000000000000000000, 0.000000000000000000, -49.75000000000000711 ) ) ;
#136 = APPROVAL_PERSON_ORGANIZATION ( #128, #188, #148 ) ;
#137 = ADVANCED_FACE ( 'NONE', ( #42 ), #27, .T. ) ;
#138 = PRODUCT_DEFINITION ( 'UNKNOWN', '', #200, #206 ) ;
#139 = FACE_OUTER_BOUND ( 'NONE', #144, .T. ) ;
#140 = ORIENTED_EDGE ( 'NONE', *, *, #181, .F. ) ;
#141 = DIRECTION ( 'NONE',  ( -1.000000000000000000, -0.000000000000000000, -0.000000000000000000 ) ) ;
#142 = EDGE_CURVE ( 'NONE', #84, #243, #179, .T. ) ;
#143 = PERSON_AND_ORGANIZATION ( #58, #184 ) ;
#144 = EDGE_LOOP ( 'NONE', ( #140, #6, #68, #129 ) ) ;
#145 = ORIENTED_EDGE ( 'NONE', *, *, #199, .T. ) ;
#146 = AXIS2_PLACEMENT_3D ( 'NONE', #163, #117, #272 ) ;
#147 = DIRECTION ( 'NONE',  ( -1.000000000000000000, 0.000000000000000000, 0.000000000000000000 ) ) ;
#148 = APPROVAL_ROLE ( '' ) ;
#149 = CIRCLE ( 'NONE', #216, 50.00000000000000000 ) ;
#150 = DIRECTION ( 'NONE',  ( -1.000000000000000000, -0.000000000000000000, -0.000000000000000000 ) ) ;
#151 = SECURITY_CLASSIFICATION_LEVEL ( 'unclassified' ) ;
#152 = EDGE_CURVE ( 'NONE', #11, #116, #29, .T. ) ;
#153 = CARTESIAN_POINT ( 'NONE',  ( 3.000000000000000000, 0.000000000000000000, 0.000000000000000000 ) ) ;
#154 = CONICAL_SURFACE ( 'NONE', #38, 49.75000000000002842, 0.7853981633974344012 ) ;
#155 = COORDINATED_UNIVERSAL_TIME_OFFSET ( 5, 0, .BEHIND. ) ;
#156 = EDGE_CURVE ( 'NONE', #30, #86, #255, .T. ) ;
#157 = ADVANCED_FACE ( 'NONE', ( #139 ), #77, .T. ) ;
#158 = ADVANCED_FACE ( 'NONE', ( #264 ), #212, .T. ) ;
#159 = VECTOR ( 'NONE', #191, 1000.000000000000114 ) ;
#160 = PERSON_AND_ORGANIZATION ( #58, #184 ) ;
#161 = DIRECTION ( 'NONE',  ( 0.000000000000000000, 0.000000000000000000, 1.000000000000000000 ) ) ;
#162 = ORIENTED_EDGE ( 'NONE', *, *, #60, .F. ) ;
#163 = CARTESIAN_POINT ( 'NONE',  ( -3.000000000000000000, 0.000000000000000000, 0.000000000000000000 ) ) ;
#164 = DIRECTION ( 'NONE',  ( 0.000000000000000000, 0.000000000000000000, -1.000000000000000000 ) ) ;
#165 = EDGE_CURVE ( 'NONE', #84, #86, #132, .T. ) ;
#166 = MANIFOLD_SOLID_BREP ( 'Chamfer1', #257 ) ;
#167 = APPROVAL_STATUS ( 'not_yet_approved' ) ;
#168 = ORIENTED_EDGE ( 'NONE', *, *, #156, .F. ) ;
#169 = DIRECTION ( 'NONE',  ( 0.000000000000000000, 0.000000000000000000, -1.000000000000000000 ) ) ;
#170 = EDGE_CURVE ( 'NONE', #180, #11, #186, .T. ) ;
#171 = CC_DESIGN_PERSON_AND_ORGANIZATION_ASSIGNMENT ( #214, #67, ( #138 ) ) ;
#172 = CARTESIAN_POINT ( 'NONE',  ( 3.000000000000000000, 0.000000000000000000, 50.00000000000000000 ) ) ;
#173 = CARTESIAN_POINT ( 'NONE',  ( -2.750000000000006661, 0.000000000000000000, -50.00000000000000000 ) ) ;
#174 = VERTEX_POINT ( 'NONE', #31 ) ;
#175 = CARTESIAN_POINT ( 'NONE',  ( 3.000000000000000000, 0.000000000000000000, 49.75000000000002842 ) ) ;
#176 = VECTOR ( 'NONE', #130, 999.9999999999998863 ) ;
#177 = ORIENTED_EDGE ( 'NONE', *, *, #253, .F. ) ;
#178 = DIRECTION ( 'NONE',  ( 0.000000000000000000, 0.000000000000000000, -1.000000000000000000 ) ) ;
#179 = CIRCLE ( 'NONE', #256, 49.75000000000000711 ) ;
#180 = VERTEX_POINT ( 'NONE', #7 ) ;
#181 = EDGE_CURVE ( 'NONE', #11, #180, #237, .T. ) ;
#182 = DIRECTION ( 'NONE',  ( 0.000000000000000000, 0.000000000000000000, 1.000000000000000000 ) ) ;
#183 = CC_DESIGN_DATE_AND_TIME_ASSIGNMENT ( #110, #100, ( #138 ) ) ;
#184 = ORGANIZATION ( 'UNSPECIFIED', 'UNSPECIFIED', '' ) ;
#185 = CARTESIAN_POINT ( 'NONE',  ( -2.750000000000006661, 0.000000000000000000, 0.000000000000000000 ) ) ;
#186 = CIRCLE ( 'NONE', #54, 49.75000000000002842 ) ;
#187 = ORIENTED_EDGE ( 'NONE', *, *, #221, .T. ) ;
#188 = APPROVAL ( #236, 'UNSPECIFIED' ) ;
#189 = DIRECTION ( 'NONE',  ( 0.000000000000000000, 0.000000000000000000, 1.000000000000000000 ) ) ;
#190 = CC_DESIGN_PERSON_AND_ORGANIZATION_ASSIGNMENT ( #143, #104, ( #102 ) ) ;
#191 = DIRECTION ( 'NONE',  ( 0.7071067811865474617, 0.000000000000000000, -0.7071067811865474617 ) ) ;
#192 = EDGE_CURVE ( 'NONE', #243, #84, #90, .T. ) ;
#193 = DIRECTION ( 'NONE',  ( 1.000000000000000000, 0.000000000000000000, 0.000000000000000000 ) ) ;
#194 = CARTESIAN_POINT ( 'NONE',  ( 3.000000000000000000, 0.000000000000000000, 0.000000000000000000 ) ) ;
#195 = LINE ( 'NONE', #97, #115 ) ;
#196 = ORIENTED_EDGE ( 'NONE', *, *, #192, .T. ) ;
#197 = ADVANCED_FACE ( 'NONE', ( #275 ), #154, .T. ) ;
#198 = PERSON_AND_ORGANIZATION ( #58, #184 ) ;
#199 = EDGE_CURVE ( 'NONE', #116, #174, #195, .T. ) ;
#200 = PRODUCT_DEFINITION_FORMATION_WITH_SPECIFIED_SOURCE ( 'ANY', '', #227, .NOT_KNOWN. ) ;
#201 = CC_DESIGN_APPROVAL ( #108, ( #102 ) ) ;
#202 = ORIENTED_EDGE ( 'NONE', *, *, #45, .F. ) ;
#203 = LINE ( 'NONE', #175, #20 ) ;
#204 = ORIENTED_EDGE ( 'NONE', *, *, #165, .T. ) ;
#205 = ADVANCED_FACE ( 'NONE', ( #85 ), #17, .F. ) ;
#206 = DESIGN_CONTEXT ( 'detailed design', #1, 'design' ) ;
#207 = DATE_AND_TIME ( #95, #72 ) ;
#208 = CC_DESIGN_APPROVAL ( #188, ( #138 ) ) ;
#209 = APPROVAL_PERSON_ORGANIZATION ( #47, #217, #25 ) ;
#210 = DIRECTION ( 'NONE',  ( 1.000000000000000000, -0.000000000000000000, -0.000000000000000000 ) ) ;
#211 = MECHANICAL_CONTEXT ( 'NONE', #69, 'mechanical' ) ;
#212 = CONICAL_SURFACE ( 'NONE', #26, 50.00000000000000000, 0.7853981633974482790 ) ;
#213 = CARTESIAN_POINT ( 'NONE',  ( -2.750000000000006661, 0.000000000000000000, 0.000000000000000000 ) ) ;
#214 = PERSON_AND_ORGANIZATION ( #58, #184 ) ;
#215 = ORIENTED_EDGE ( 'NONE', *, *, #152, .F. ) ;
#216 = AXIS2_PLACEMENT_3D ( 'NONE', #213, #258, #126 ) ;
#217 = APPROVAL ( #105, 'UNSPECIFIED' ) ;
#218 = LINE ( 'NONE', #173, #159 ) ;
#219 = DIRECTION ( 'NONE',  ( -1.000000000000000000, -0.000000000000000000, -0.000000000000000000 ) ) ;
#220 = CARTESIAN_POINT ( 'NONE',  ( 3.000000000000000000, 0.000000000000000000, 0.000000000000000000 ) ) ;
#221 = EDGE_CURVE ( 'NONE', #30, #116, #51, .T. ) ;
#222 = LOCAL_TIME ( 9, 13, 30.00000000000000000, #59 ) ;
#223 = DIRECTION ( 'NONE',  ( 0.000000000000000000, 0.000000000000000000, 1.000000000000000000 ) ) ;
#224 = ORIENTED_EDGE ( 'NONE', *, *, #253, .T. ) ;
#225 = CC_DESIGN_SECURITY_CLASSIFICATION ( #102, ( #200 ) ) ;
#226 = DIRECTION ( 'NONE',  ( -1.000000000000000000, 0.000000000000000000, 0.000000000000000000 ) ) ;
#227 = PRODUCT ( 'Web Model 11856_17295', 'Web Model 11856_17295', '', ( #211 ) ) ;
#228 =( LENGTH_UNIT ( ) NAMED_UNIT ( * ) SI_UNIT ( .MILLI., .METRE. ) );
#229 = DATE_AND_TIME ( #96, #252 ) ;
#230 = DIRECTION ( 'NONE',  ( 1.000000000000000000, -0.000000000000000000, -0.000000000000000000 ) ) ;
#231 = EDGE_LOOP ( 'NONE', ( #215, #91, #64, #202 ) ) ;
#232 = AXIS2_PLACEMENT_3D ( 'NONE', #185, #210, #169 ) ;
#233 = CC_DESIGN_APPROVAL ( #217, ( #200 ) ) ;
#234 = PRODUCT_RELATED_PRODUCT_CATEGORY ( 'detail', '', ( #227 ) ) ;
#235 = CARTESIAN_POINT ( 'NONE',  ( 2.750000000000020872, 0.000000000000000000, 50.00000000000000000 ) ) ;
#236 = APPROVAL_STATUS ( 'not_yet_approved' ) ;
#237 = CIRCLE ( 'NONE', #19, 49.75000000000002842 ) ;
#238 = ORIENTED_EDGE ( 'NONE', *, *, #15, .F. ) ;
#239 =( GEOMETRIC_REPRESENTATION_CONTEXT ( 3 ) GLOBAL_UNCERTAINTY_ASSIGNED_CONTEXT ( ( #123 ) ) GLOBAL_UNIT_ASSIGNED_CONTEXT ( ( #228, #250, #265 ) ) REPRESENTATION_CONTEXT ( 'NONE', 'WORKASPACE' ) );
#240 = DIRECTION ( 'NONE',  ( 0.000000000000000000, 0.000000000000000000, -1.000000000000000000 ) ) ;
#241 = DATE_AND_TIME ( #44, #41 ) ;
#242 = CYLINDRICAL_SURFACE ( 'NONE', #24, 50.00000000000000000 ) ;
#243 = VERTEX_POINT ( 'NONE', #135 ) ;
#244 = DIRECTION ( 'NONE',  ( 0.7071067811865474617, 8.659560562354932858E-17, 0.7071067811865474617 ) ) ;
#245 = EDGE_CURVE ( 'NONE', #180, #30, #203, .T. ) ;
#246 = CC_DESIGN_PERSON_AND_ORGANIZATION_ASSIGNMENT ( #271, #131, ( #200 ) ) ;
#247 = CARTESIAN_POINT ( 'NONE',  ( 3.000000000000000000, 0.000000000000000000, 0.000000000000000000 ) ) ;
#248 = FACE_OUTER_BOUND ( 'NONE', #273, .T. ) ;
#249 = EDGE_LOOP ( 'NONE', ( #196, #112 ) ) ;
#250 =( NAMED_UNIT ( * ) PLANE_ANGLE_UNIT ( ) SI_UNIT ( $, .RADIAN. ) );
#251 = DIRECTION ( 'NONE',  ( -1.000000000000000000, -0.000000000000000000, -0.000000000000000000 ) ) ;
#252 = LOCAL_TIME ( 9, 13, 30.00000000000000000, #155 ) ;
#253 = EDGE_CURVE ( 'NONE', #86, #174, #36, .T. ) ;
#254 = CARTESIAN_POINT ( 'NONE',  ( 3.000000000000000000, 6.107925910747425769E-15, -49.75000000000002842 ) ) ;
#255 = LINE ( 'NONE', #172, #12 ) ;
#256 = AXIS2_PLACEMENT_3D ( 'NONE', #4, #150, #23 ) ;
#257 = CLOSED_SHELL ( 'NONE', ( #157, #93, #35, #268, #137, #205, #158, #197 ) ) ;
#258 = DIRECTION ( 'NONE',  ( 1.000000000000000000, -0.000000000000000000, -0.000000000000000000 ) ) ;
#259 = DATE_AND_TIME ( #101, #222 ) ;
#260 = AXIS2_PLACEMENT_3D ( 'NONE', #2, #147, #263 ) ;
#261 = PERSON_AND_ORGANIZATION_ROLE ( 'design_supplier' ) ;
#262 = CC_DESIGN_PERSON_AND_ORGANIZATION_ASSIGNMENT ( #198, #261, ( #200 ) ) ;
#263 = DIRECTION ( 'NONE',  ( 0.000000000000000000, 0.000000000000000000, -1.000000000000000000 ) ) ;
#264 = FACE_OUTER_BOUND ( 'NONE', #63, .T. ) ;
#265 =( NAMED_UNIT ( * ) SI_UNIT ( $, .STERADIAN. ) SOLID_ANGLE_UNIT ( ) );
#266 = DIRECTION ( 'NONE',  ( 1.000000000000000000, 0.000000000000000000, 0.000000000000000000 ) ) ;
#267 = ORIENTED_EDGE ( 'NONE', *, *, #192, .F. ) ;
#268 = ADVANCED_FACE ( 'NONE', ( #124 ), #76, .T. ) ;
#269 = VECTOR ( 'NONE', #244, 1000.000000000000114 ) ;
#270 = DIRECTION ( 'NONE',  ( 0.000000000000000000, 0.000000000000000000, -1.000000000000000000 ) ) ;
#271 = PERSON_AND_ORGANIZATION ( #58, #184 ) ;
#272 = DIRECTION ( 'NONE',  ( 0.000000000000000000, 0.000000000000000000, -1.000000000000000000 ) ) ;
#273 = EDGE_LOOP ( 'NONE', ( #56, #204, #238, #162 ) ) ;
#274 = CARTESIAN_POINT ( 'NONE',  ( -3.000000000000000000, 0.000000000000000000, 0.000000000000000000 ) ) ;
#275 = FACE_OUTER_BOUND ( 'NONE', #231, .T. ) ;
ENDSEC;
END-ISO-10303-21;
