ISO-10303-21;
HEADER;
FILE_DESCRIPTION (( 'STEP AP203' ),
    '1' );
FILE_NAME ('87699.STEP',
    '2013-04-03T17:26:34',
    ( '' ),
    ( '' ),
    'SwSTEP 2.0',
    'SolidWorks 2011',
    '' );
FILE_SCHEMA (( 'CONFIG_CONTROL_DESIGN' ));
ENDSEC;

DATA;
#1 = AXIS2_PLACEMENT_3D ( 'NONE', #102, #103, #98 ) ;
#2 = CC_DESIGN_SECURITY_CLASSIFICATION ( #22, ( #3 ) ) ;
#3 = PRODUCT_DEFINITION_FORMATION_WITH_SPECIFIED_SOURCE ( 'ANY', '', #26, .NOT_KNOWN. ) ;
#4 = LOCAL_TIME ( 10, 26, 34.00000000000000000, #59 ) ;
#5 = APPROVAL_PERSON_ORGANIZATION ( #54, #122, #44 ) ;
#6 = CLOSED_SHELL ( 'NONE', ( #121, #128, #120 ) ) ;
#7 = CIRCLE ( 'NONE', #1, 2.500000000000002200 ) ;
#8 = ORGANIZATION ( 'UNSPECIFIED', 'UNSPECIFIED', '' ) ;
#9 = CC_DESIGN_APPROVAL ( #122, ( #3 ) ) ;
#10 = AXIS2_PLACEMENT_3D ( 'NONE', #109, #110, #96 ) ;
#11 = APPROVAL_PERSON_ORGANIZATION ( #37, #127, #84 ) ;
#12 = CIRCLE ( 'NONE', #10, 2.500000000000002200 ) ;
#13 = AXIS2_PLACEMENT_3D ( 'NONE', #38, #30, #39 ) ;
#14 = LOCAL_TIME ( 10, 26, 34.00000000000000000, #43 ) ;
#15 = LOCAL_TIME ( 10, 26, 34.00000000000000000, #76 ) ;
#16 =( GEOMETRIC_REPRESENTATION_CONTEXT ( 3 ) GLOBAL_UNCERTAINTY_ASSIGNED_CONTEXT ( ( #116 ) ) GLOBAL_UNIT_ASSIGNED_CONTEXT ( ( #88, #73, #47 ) ) REPRESENTATION_CONTEXT ( 'NONE', 'WORKASPACE' ) );
#17 = CC_DESIGN_APPROVAL ( #127, ( #125 ) ) ;
#18 = LOCAL_TIME ( 10, 26, 34.00000000000000000, #53 ) ;
#19 = AXIS2_PLACEMENT_3D ( 'NONE', #48, #90, #35 ) ;
#20 = AXIS2_PLACEMENT_3D ( 'NONE', #99, #66, #67 ) ;
#21 = AXIS2_PLACEMENT_3D ( 'NONE', #28, #89, #72 ) ;
#22 = SECURITY_CLASSIFICATION ( '', '', #56 ) ;
#23 = LOCAL_TIME ( 10, 26, 34.00000000000000000, #80 ) ;
#24 = CC_DESIGN_APPROVAL ( #131, ( #22 ) ) ;
#25 = APPROVAL_PERSON_ORGANIZATION ( #85, #131, #108 ) ;
#26 = PRODUCT ( '87699', '87699', '', ( #70 ) ) ;
#27 = FACE_OUTER_BOUND ( 'NONE', #93, .T. ) ;
#28 = CARTESIAN_POINT ( 'NONE',  ( 0.0000000000000000000, 0.0000000000000000000, -1.000000000000000400 ) ) ;
#29 = EDGE_LOOP ( 'NONE', ( #94 ) ) ;
#30 = DIRECTION ( 'NONE',  ( -0.0000000000000000000, -0.0000000000000000000, 1.000000000000000000 ) ) ;
#31 = PLANE ( 'NONE',  #19 ) ;
#32 = DATE_AND_TIME ( #42, #14 ) ;
#33 = PERSON_AND_ORGANIZATION_ROLE ( 'design_supplier' ) ;
#34 = PERSON_AND_ORGANIZATION_ROLE ( 'creator' ) ;
#35 = DIRECTION ( 'NONE',  ( -1.000000000000000000, 0.0000000000000000000, -0.0000000000000000000 ) ) ;
#36 = APPROVAL_DATE_TIME ( #32, #122 ) ;
#37 = PERSON_AND_ORGANIZATION ( #111, #8 ) ;
#38 = CARTESIAN_POINT ( 'NONE',  ( 0.0000000000000000000, 0.0000000000000000000, 0.0000000000000000000 ) ) ;
#39 = DIRECTION ( 'NONE',  ( 1.000000000000000000, 0.0000000000000000000, 0.0000000000000000000 ) ) ;
#40 = PERSON_AND_ORGANIZATION ( #111, #8 ) ;
#41 = PERSON_AND_ORGANIZATION ( #111, #8 ) ;
#42 = CALENDAR_DATE ( 2013, 3, 4 ) ;
#43 = COORDINATED_UNIVERSAL_TIME_OFFSET ( 7, 0, .BEHIND. ) ;
#44 = APPROVAL_ROLE ( '' ) ;
#45 = DATE_AND_TIME ( #62, #4 ) ;
#46 = PERSON_AND_ORGANIZATION_ROLE ( 'classification_officer' ) ;
#47 =( NAMED_UNIT ( * ) SI_UNIT ( $, .STERADIAN. ) SOLID_ANGLE_UNIT ( ) );
#48 = CARTESIAN_POINT ( 'NONE',  ( 0.0000000000000000000, 0.0000000000000000000, 0.0000000000000000000 ) ) ;
#49 = APPROVAL_DATE_TIME ( #87, #131 ) ;
#50 = CALENDAR_DATE ( 2013, 3, 4 ) ;
#51 = PERSON_AND_ORGANIZATION ( #111, #8 ) ;
#52 = FACE_OUTER_BOUND ( 'NONE', #29, .T. ) ;
#53 = COORDINATED_UNIVERSAL_TIME_OFFSET ( 7, 0, .BEHIND. ) ;
#54 = PERSON_AND_ORGANIZATION ( #111, #8 ) ;
#55 = APPROVAL_STATUS ( 'not_yet_approved' ) ;
#56 = SECURITY_CLASSIFICATION_LEVEL ( 'unclassified' ) ;
#57 = EDGE_LOOP ( 'NONE', ( #105 ) ) ;
#58 = CYLINDRICAL_SURFACE ( 'NONE', #13, 2.500000000000002200 ) ;
#59 = COORDINATED_UNIVERSAL_TIME_OFFSET ( 7, 0, .BEHIND. ) ;
#60 = APPROVAL_DATE_TIME ( #74, #127 ) ;
#61 = FACE_OUTER_BOUND ( 'NONE', #91, .T. ) ;
#62 = CALENDAR_DATE ( 2013, 3, 4 ) ;
#63 = APPROVAL_STATUS ( 'not_yet_approved' ) ;
#64 = FACE_OUTER_BOUND ( 'NONE', #57, .T. ) ;
#65 = PLANE ( 'NONE',  #21 ) ;
#66 = DIRECTION ( 'NONE',  ( 0.0000000000000000000, 0.0000000000000000000, 1.000000000000000000 ) ) ;
#67 = DIRECTION ( 'NONE',  ( 1.000000000000000000, 0.0000000000000000000, 0.0000000000000000000 ) ) ;
#68 = APPLICATION_PROTOCOL_DEFINITION ( 'international standard', 'config_control_design', 1994, #114 ) ;
#69 = SHAPE_DEFINITION_REPRESENTATION ( #117, #112 ) ;
#70 = MECHANICAL_CONTEXT ( 'NONE', #114, 'mechanical' ) ;
#71 = DATE_TIME_ROLE ( 'classification_date' ) ;
#72 = DIRECTION ( 'NONE',  ( 1.000000000000000000, 0.0000000000000000000, 0.0000000000000000000 ) ) ;
#73 =( NAMED_UNIT ( * ) PLANE_ANGLE_UNIT ( ) SI_UNIT ( $, .RADIAN. ) );
#74 = DATE_AND_TIME ( #75, #15 ) ;
#75 = CALENDAR_DATE ( 2013, 3, 4 ) ;
#76 = COORDINATED_UNIVERSAL_TIME_OFFSET ( 7, 0, .BEHIND. ) ;
#77 = PERSON_AND_ORGANIZATION_ROLE ( 'creator' ) ;
#78 = PERSON_AND_ORGANIZATION ( #111, #8 ) ;
#79 = DATE_TIME_ROLE ( 'creation_date' ) ;
#80 = COORDINATED_UNIVERSAL_TIME_OFFSET ( 7, 0, .BEHIND. ) ;
#81 = CALENDAR_DATE ( 2013, 3, 4 ) ;
#82 = DATE_AND_TIME ( #81, #23 ) ;
#83 = ORIENTED_EDGE ( 'NONE', *, *, #129, .T. ) ;
#84 = APPROVAL_ROLE ( '' ) ;
#85 = PERSON_AND_ORGANIZATION ( #111, #8 ) ;
#86 = APPROVAL_STATUS ( 'not_yet_approved' ) ;
#87 = DATE_AND_TIME ( #50, #18 ) ;
#88 =( LENGTH_UNIT ( ) NAMED_UNIT ( * ) SI_UNIT ( .MILLI., .METRE. ) );
#89 = DIRECTION ( 'NONE',  ( 0.0000000000000000000, -0.0000000000000000000, 1.000000000000000000 ) ) ;
#90 = DIRECTION ( 'NONE',  ( 0.0000000000000000000, 0.0000000000000000000, -1.000000000000000000 ) ) ;
#91 = EDGE_LOOP ( 'NONE', ( #83 ) ) ;
#92 = CARTESIAN_POINT ( 'NONE',  ( 2.500000000000002200, 0.0000000000000000000, -1.000000000000000000 ) ) ;
#93 = EDGE_LOOP ( 'NONE', ( #107 ) ) ;
#94 = ORIENTED_EDGE ( 'NONE', *, *, #129, .F. ) ;
#95 = VERTEX_POINT ( 'NONE', #101 ) ;
#96 = DIRECTION ( 'NONE',  ( 1.000000000000000000, 0.0000000000000000000, 0.0000000000000000000 ) ) ;
#97 = PERSON_AND_ORGANIZATION ( #111, #8 ) ;
#98 = DIRECTION ( 'NONE',  ( 1.000000000000000000, 0.0000000000000000000, 0.0000000000000000000 ) ) ;
#99 = CARTESIAN_POINT ( 'NONE',  ( 0.0000000000000000000, 0.0000000000000000000, 0.0000000000000000000 ) ) ;
#100 = PERSON_AND_ORGANIZATION_ROLE ( 'design_owner' ) ;
#101 = CARTESIAN_POINT ( 'NONE',  ( 2.500000000000002200, 0.0000000000000000000, 0.0000000000000000000 ) ) ;
#102 = CARTESIAN_POINT ( 'NONE',  ( 0.0000000000000000000, 0.0000000000000000000, -1.000000000000000000 ) ) ;
#103 = DIRECTION ( 'NONE',  ( -0.0000000000000000000, -0.0000000000000000000, 1.000000000000000000 ) ) ;
#104 = APPLICATION_PROTOCOL_DEFINITION ( 'international standard', 'config_control_design', 1994, #113 ) ;
#105 = ORIENTED_EDGE ( 'NONE', *, *, #126, .T. ) ;
#106 = VERTEX_POINT ( 'NONE', #92 ) ;
#107 = ORIENTED_EDGE ( 'NONE', *, *, #126, .F. ) ;
#108 = APPROVAL_ROLE ( '' ) ;
#109 = CARTESIAN_POINT ( 'NONE',  ( 0.0000000000000000000, 0.0000000000000000000, 0.0000000000000000000 ) ) ;
#110 = DIRECTION ( 'NONE',  ( -0.0000000000000000000, -0.0000000000000000000, 1.000000000000000000 ) ) ;
#111 = PERSON ( 'UNSPECIFIED', 'UNSPECIFIED', 'UNSPECIFIED', ('UNSPECIFIED'), ('UNSPECIFIED'), ('UNSPECIFIED') ) ;
#112 = ADVANCED_BREP_SHAPE_REPRESENTATION ( '87699', ( #118, #20 ), #16 ) ;
#113 = APPLICATION_CONTEXT ( 'configuration controlled 3d designs of mechanical parts and assemblies' ) ;
#114 = APPLICATION_CONTEXT ( 'configuration controlled 3d designs of mechanical parts and assemblies' ) ;
#115 = DESIGN_CONTEXT ( 'detailed design', #113, 'design' ) ;
#116 = UNCERTAINTY_MEASURE_WITH_UNIT (LENGTH_MEASURE( 1.000000000000000100E-005 ), #88, 'distance_accuracy_value', 'NONE');
#117 = PRODUCT_DEFINITION_SHAPE ( 'NONE', 'NONE',  #125 ) ;
#118 = MANIFOLD_SOLID_BREP ( 'Revolve1', #6 ) ;
#119 = CC_DESIGN_DATE_AND_TIME_ASSIGNMENT ( #45, #71, ( #22 ) ) ;
#120 = ADVANCED_FACE ( 'NONE', ( #52 ), #65, .F. ) ;
#121 = ADVANCED_FACE ( 'NONE', ( #64 ), #31, .F. ) ;
#122 = APPROVAL ( #55, 'UNSPECIFIED' ) ;
#123 = PRODUCT_RELATED_PRODUCT_CATEGORY ( 'detail', '', ( #26 ) ) ;
#124 = CC_DESIGN_PERSON_AND_ORGANIZATION_ASSIGNMENT ( #41, #33, ( #3 ) ) ;
#125 = PRODUCT_DEFINITION ( 'UNKNOWN', '', #3, #115 ) ;
#126 = EDGE_CURVE ( 'NONE', #95, #95, #12, .T. ) ;
#127 = APPROVAL ( #63, 'UNSPECIFIED' ) ;
#128 = ADVANCED_FACE ( 'NONE', ( #27, #61 ), #58, .T. ) ;
#129 = EDGE_CURVE ( 'NONE', #106, #106, #7, .T. ) ;
#130 = CC_DESIGN_PERSON_AND_ORGANIZATION_ASSIGNMENT ( #51, #46, ( #22 ) ) ;
#131 = APPROVAL ( #86, 'UNSPECIFIED' ) ;
#132 = CC_DESIGN_DATE_AND_TIME_ASSIGNMENT ( #82, #79, ( #125 ) ) ;
#133 = CC_DESIGN_PERSON_AND_ORGANIZATION_ASSIGNMENT ( #78, #77, ( #125 ) ) ;
#134 = CC_DESIGN_PERSON_AND_ORGANIZATION_ASSIGNMENT ( #40, #34, ( #3 ) ) ;
#135 = CC_DESIGN_PERSON_AND_ORGANIZATION_ASSIGNMENT ( #97, #100, ( #26 ) ) ;
ENDSEC;
END-ISO-10303-21;
