ISO-10303-21;
HEADER;
FILE_DESCRIPTION (( 'STEP AP203' ),
    '1' );
FILE_NAME ('step_47010.step',
    '2014-06-12T17:55:11',
    ( '' ),
    ( '' ),
    'SwSTEP 2.0',
    'SolidWorks 2014',
    '' );
FILE_SCHEMA (( 'CONFIG_CONTROL_DESIGN' ));
ENDSEC;

DATA;
#1 = PERSON_AND_ORGANIZATION_ROLE ( 'classification_officer' ) ;
#2 = CC_DESIGN_APPROVAL ( #6, ( #24 ) ) ;
#3 = ORIENTED_EDGE ( 'NONE', *, *, #58, .T. ) ;
#4 = SECURITY_CLASSIFICATION_LEVEL ( 'unclassified' ) ;
#5 = LINE ( 'NONE', #133, #137 ) ;
#6 = APPROVAL ( #47, 'UNSPECIFIED' ) ;
#7 = PERSON_AND_ORGANIZATION_ROLE ( 'design_supplier' ) ;
#8 = PERSON_AND_ORGANIZATION_ROLE ( 'creator' ) ;
#9 = CARTESIAN_POINT ( 'NONE',  ( 0.0000000000000000000, 0.0000000000000000000, 0.0000000000000000000 ) ) ;
#10 = APPROVAL_ROLE ( '' ) ;
#11 = APPROVAL_STATUS ( 'not_yet_approved' ) ;
#12 = CC_DESIGN_DATE_AND_TIME_ASSIGNMENT ( #117, #63, ( #24 ) ) ;
#13 = CC_DESIGN_PERSON_AND_ORGANIZATION_ASSIGNMENT ( #230, #1, ( #24 ) ) ;
#14 = DATE_TIME_ROLE ( 'creation_date' ) ;
#15 = PERSON_AND_ORGANIZATION_ROLE ( 'creator' ) ;
#16 = APPROVAL_ROLE ( '' ) ;
#17 = LINE ( 'NONE', #216, #293 ) ;
#18 = VERTEX_POINT ( 'NONE', #169 ) ;
#19 = CARTESIAN_POINT ( 'NONE',  ( 5.000000000000000000, 0.0000000000000000000, 5.000000000000000000 ) ) ;
#20 = APPROVAL_STATUS ( 'not_yet_approved' ) ;
#21 = APPLICATION_PROTOCOL_DEFINITION ( 'international standard', 'config_control_design', 1994, #25 ) ;
#22 = EDGE_LOOP ( 'NONE', ( #3, #107, #258, #157 ) ) ;
#23 = VERTEX_POINT ( 'NONE', #172 ) ;
#24 = SECURITY_CLASSIFICATION ( '', '', #4 ) ;
#25 = APPLICATION_CONTEXT ( 'configuration controlled 3d designs of mechanical parts and assemblies' ) ;
#26 = PERSON_AND_ORGANIZATION_ROLE ( 'design_owner' ) ;
#27 = APPROVAL_PERSON_ORGANIZATION ( #85, #73, #16 ) ;
#28 = MECHANICAL_CONTEXT ( 'NONE', #35, 'mechanical' ) ;
#29 = DIRECTION ( 'NONE',  ( 1.000000000000000000, 0.0000000000000000000, 0.0000000000000000000 ) ) ;
#30 = CC_DESIGN_PERSON_AND_ORGANIZATION_ASSIGNMENT ( #123, #7, ( #50 ) ) ;
#31 = DIRECTION ( 'NONE',  ( 0.0000000000000000000, 0.0000000000000000000, 1.000000000000000000 ) ) ;
#32 = CC_DESIGN_PERSON_AND_ORGANIZATION_ASSIGNMENT ( #232, #8, ( #50 ) ) ;
#33 = ORIENTED_EDGE ( 'NONE', *, *, #252, .T. ) ;
#34 = PRODUCT_DEFINITION_SHAPE ( 'NONE', 'NONE',  #83 ) ;
#35 = APPLICATION_CONTEXT ( 'configuration controlled 3d designs of mechanical parts and assemblies' ) ;
#36 = CC_DESIGN_APPROVAL ( #44, ( #50 ) ) ;
#37 = CALENDAR_DATE ( 2014, 12, 6 ) ;
#38 = VECTOR ( 'NONE', #112, 1000.000000000000000 ) ;
#39 = APPLICATION_PROTOCOL_DEFINITION ( 'international standard', 'config_control_design', 1994, #35 ) ;
#40 = VECTOR ( 'NONE', #67, 1000.000000000000000 ) ;
#41 = VERTEX_POINT ( 'NONE', #191 ) ;
#42 = VERTEX_POINT ( 'NONE', #192 ) ;
#43 = CALENDAR_DATE ( 2014, 12, 6 ) ;
#44 = APPROVAL ( #11, 'UNSPECIFIED' ) ;
#45 = CARTESIAN_POINT ( 'NONE',  ( 5.000000000000000000, 0.0000000000000000000, 0.0000000000000000000 ) ) ;
#46 =( NAMED_UNIT ( * ) SI_UNIT ( $, .STERADIAN. ) SOLID_ANGLE_UNIT ( ) );
#47 = APPROVAL_STATUS ( 'not_yet_approved' ) ;
#48 =( NAMED_UNIT ( * ) PLANE_ANGLE_UNIT ( ) SI_UNIT ( $, .RADIAN. ) );
#49 = VECTOR ( 'NONE', #231, 1000.000000000000000 ) ;
#50 = PRODUCT_DEFINITION_FORMATION_WITH_SPECIFIED_SOURCE ( 'ANY', '', #66, .NOT_KNOWN. ) ;
#51 = ORIENTED_EDGE ( 'NONE', *, *, #209, .F. ) ;
#52 = CLOSED_SHELL ( 'NONE', ( #255, #54, #310, #121, #82 ) ) ;
#53 = DIRECTION ( 'NONE',  ( -1.000000000000000000, -1.734723475976807600E-016, 0.0000000000000000000 ) ) ;
#54 = ADVANCED_FACE ( 'NONE', ( #96 ), #174, .F. ) ;
#55 = DIRECTION ( 'NONE',  ( -0.0000000000000000000, -0.0000000000000000000, -1.000000000000000000 ) ) ;
#56 = CC_DESIGN_DATE_AND_TIME_ASSIGNMENT ( #142, #14, ( #83 ) ) ;
#57 = LINE ( 'NONE', #254, #49 ) ;
#58 = EDGE_CURVE ( 'NONE', #23, #188, #17, .T. ) ;
#59 = ORIENTED_EDGE ( 'NONE', *, *, #252, .F. ) ;
#60 = CC_DESIGN_PERSON_AND_ORGANIZATION_ASSIGNMENT ( #272, #15, ( #83 ) ) ;
#61 = LOCAL_TIME ( 10, 55, 11.00000000000000000, #247 ) ;
#62 = LINE ( 'NONE', #314, #78 ) ;
#63 = DATE_TIME_ROLE ( 'classification_date' ) ;
#64 = DIRECTION ( 'NONE',  ( 1.734723475976806800E-016, -1.000000000000000000, 0.0000000000000000000 ) ) ;
#65 = CC_DESIGN_APPROVAL ( #73, ( #83 ) ) ;
#66 = PRODUCT ( 'step_47010', 'step_47010', '', ( #28 ) ) ;
#67 = DIRECTION ( 'NONE',  ( -0.0000000000000000000, -0.0000000000000000000, -1.000000000000000000 ) ) ;
#68 = ORIENTED_EDGE ( 'NONE', *, *, #187, .T. ) ;
#69 = VECTOR ( 'NONE', #135, 1000.000000000000000 ) ;
#70 = CARTESIAN_POINT ( 'NONE',  ( 4.999999999999999100, 5.000000000000000900, 5.000000000000000000 ) ) ;
#71 = CARTESIAN_POINT ( 'NONE',  ( 0.0000000000000000000, 0.0000000000000000000, 0.0000000000000000000 ) ) ;
#72 = LOCAL_TIME ( 10, 55, 11.00000000000000000, #176 ) ;
#73 = APPROVAL ( #20, 'UNSPECIFIED' ) ;
#74 =( LENGTH_UNIT ( ) NAMED_UNIT ( * ) SI_UNIT ( .MILLI., .METRE. ) );
#75 = DIRECTION ( 'NONE',  ( 0.0000000000000000000, -0.0000000000000000000, 1.000000000000000000 ) ) ;
#76 = DIRECTION ( 'NONE',  ( 0.0000000000000000000, 1.000000000000000000, 0.0000000000000000000 ) ) ;
#77 = ORIENTED_EDGE ( 'NONE', *, *, #288, .F. ) ;
#78 = VECTOR ( 'NONE', #53, 1000.000000000000000 ) ;
#79 = PLANE ( 'NONE',  #159 ) ;
#80 = LINE ( 'NONE', #286, #38 ) ;
#81 = DIRECTION ( 'NONE',  ( 0.7071067811865474600, -0.7071067811865475700, 0.0000000000000000000 ) ) ;
#82 = ADVANCED_FACE ( 'NONE', ( #90 ), #201, .F. ) ;
#83 = PRODUCT_DEFINITION ( 'UNKNOWN', '', #50, #257 ) ;
#84 = DIRECTION ( 'NONE',  ( -1.000000000000000000, -1.734723475976806800E-016, 0.0000000000000000000 ) ) ;
#85 = PERSON_AND_ORGANIZATION ( #294, #304 ) ;
#86 = CARTESIAN_POINT ( 'NONE',  ( 5.000000000000000000, 0.0000000000000000000, 5.000000000000000000 ) ) ;
#87 = CC_DESIGN_PERSON_AND_ORGANIZATION_ASSIGNMENT ( #226, #26, ( #66 ) ) ;
#88 = ORIENTED_EDGE ( 'NONE', *, *, #292, .T. ) ;
#89 = FACE_OUTER_BOUND ( 'NONE', #114, .T. ) ;
#90 = FACE_OUTER_BOUND ( 'NONE', #243, .T. ) ;
#91 = ORIENTED_EDGE ( 'NONE', *, *, #161, .F. ) ;
#92 = PLANE ( 'NONE',  #118 ) ;
#93 = DIRECTION ( 'NONE',  ( 1.734723475976807600E-016, -1.000000000000000000, 0.0000000000000000000 ) ) ;
#94 = AXIS2_PLACEMENT_3D ( 'NONE', #71, #31, #29 ) ;
#95 = LOCAL_TIME ( 10, 55, 11.00000000000000000, #241 ) ;
#96 = FACE_OUTER_BOUND ( 'NONE', #317, .T. ) ;
#97 = CARTESIAN_POINT ( 'NONE',  ( 0.0000000000000000000, 0.0000000000000000000, 5.000000000000000000 ) ) ;
#98 = DIRECTION ( 'NONE',  ( -1.734723475976806800E-016, 1.000000000000000000, 0.0000000000000000000 ) ) ;
#99 = EDGE_LOOP ( 'NONE', ( #153, #214, #77, #145 ) ) ;
#100 = ORIENTED_EDGE ( 'NONE', *, *, #156, .T. ) ;
#101 = CARTESIAN_POINT ( 'NONE',  ( 6.123233995736766300E-016, 5.000000000000000000, 5.000000000000000000 ) ) ;
#102 = DIRECTION ( 'NONE',  ( -1.000000000000000000, -1.734723475976807600E-016, 0.0000000000000000000 ) ) ;
#103 = CARTESIAN_POINT ( 'NONE',  ( 5.000000000000000000, 0.0000000000000000000, 0.0000000000000000000 ) ) ;
#104 = ORIENTED_EDGE ( 'NONE', *, *, #204, .T. ) ;
#105 = VECTOR ( 'NONE', #98, 1000.000000000000000 ) ;
#106 = ADVANCED_FACE ( 'NONE', ( #276 ), #224, .F. ) ;
#107 = ORIENTED_EDGE ( 'NONE', *, *, #318, .F. ) ;
#108 = EDGE_CURVE ( 'NONE', #42, #268, #186, .T. ) ;
#109 = APPROVAL_DATE_TIME ( #210, #44 ) ;
#110 = EDGE_CURVE ( 'NONE', #162, #42, #165, .T. ) ;
#111 = CC_DESIGN_SECURITY_CLASSIFICATION ( #24, ( #50 ) ) ;
#112 = DIRECTION ( 'NONE',  ( -0.0000000000000000000, -0.0000000000000000000, -1.000000000000000000 ) ) ;
#113 = VECTOR ( 'NONE', #55, 1000.000000000000000 ) ;
#114 = EDGE_LOOP ( 'NONE', ( #68, #126, #262, #250 ) ) ;
#115 = DIRECTION ( 'NONE',  ( -0.0000000000000000000, -0.0000000000000000000, -1.000000000000000000 ) ) ;
#116 = DIRECTION ( 'NONE',  ( 1.000000000000000000, 1.734723475976807600E-016, 0.0000000000000000000 ) ) ;
#117 = DATE_AND_TIME ( #43, #61 ) ;
#118 = AXIS2_PLACEMENT_3D ( 'NONE', #97, #76, #75 ) ;
#119 = PLANE ( 'NONE',  #146 ) ;
#120 = ORIENTED_EDGE ( 'NONE', *, *, #209, .T. ) ;
#121 = ADVANCED_FACE ( 'NONE', ( #244 ), #264, .T. ) ;
#122 = LOCAL_TIME ( 10, 55, 11.00000000000000000, #144 ) ;
#123 = PERSON_AND_ORGANIZATION ( #294, #304 ) ;
#124 = VECTOR ( 'NONE', #309, 1000.000000000000000 ) ;
#125 =( GEOMETRIC_REPRESENTATION_CONTEXT ( 3 ) GLOBAL_UNCERTAINTY_ASSIGNED_CONTEXT ( ( #235 ) ) GLOBAL_UNIT_ASSIGNED_CONTEXT ( ( #74, #48, #46 ) ) REPRESENTATION_CONTEXT ( 'NONE', 'WORKASPACE' ) );
#126 = ORIENTED_EDGE ( 'NONE', *, *, #284, .F. ) ;
#127 = FACE_OUTER_BOUND ( 'NONE', #99, .T. ) ;
#128 = FACE_OUTER_BOUND ( 'NONE', #179, .T. ) ;
#129 = AXIS2_PLACEMENT_3D ( 'NONE', #302, #306, #282 ) ;
#130 = CALENDAR_DATE ( 2014, 12, 6 ) ;
#131 = VERTEX_POINT ( 'NONE', #246 ) ;
#132 = VECTOR ( 'NONE', #227, 1000.000000000000000 ) ;
#133 = CARTESIAN_POINT ( 'NONE',  ( 5.000000000000000000, 0.0000000000000000000, 5.000000000000000000 ) ) ;
#134 = CARTESIAN_POINT ( 'NONE',  ( 4.999999999999999100, 5.000000000000000900, 0.0000000000000000000 ) ) ;
#135 = DIRECTION ( 'NONE',  ( 1.000000000000000000, 0.0000000000000000000, 0.0000000000000000000 ) ) ;
#136 = LINE ( 'NONE', #218, #238 ) ;
#137 = VECTOR ( 'NONE', #259, 1000.000000000000000 ) ;
#138 = AXIS2_PLACEMENT_3D ( 'NONE', #197, #248, #271 ) ;
#139 = VECTOR ( 'NONE', #102, 1000.000000000000000 ) ;
#140 = VERTEX_POINT ( 'NONE', #278 ) ;
#141 = EDGE_LOOP ( 'NONE', ( #297, #88, #229 ) ) ;
#142 = DATE_AND_TIME ( #234, #95 ) ;
#143 = LOCAL_TIME ( 10, 55, 11.00000000000000000, #193 ) ;
#144 = COORDINATED_UNIVERSAL_TIME_OFFSET ( 7, 0, .BEHIND. ) ;
#145 = ORIENTED_EDGE ( 'NONE', *, *, #318, .T. ) ;
#146 = AXIS2_PLACEMENT_3D ( 'NONE', #320, #93, #116 ) ;
#147 = ORIENTED_EDGE ( 'NONE', *, *, #110, .F. ) ;
#148 = DATE_AND_TIME ( #283, #72 ) ;
#149 = PLANE ( 'NONE',  #138 ) ;
#150 = VERTEX_POINT ( 'NONE', #274 ) ;
#151 = EDGE_LOOP ( 'NONE', ( #158, #33, #104 ) ) ;
#152 = ADVANCED_FACE ( 'NONE', ( #128 ), #263, .T. ) ;
#153 = ORIENTED_EDGE ( 'NONE', *, *, #289, .T. ) ;
#154 = CARTESIAN_POINT ( 'NONE',  ( 0.0000000000000000000, 0.0000000000000000000, 5.000000000000000000 ) ) ;
#155 = LINE ( 'NONE', #86, #113 ) ;
#156 = EDGE_CURVE ( 'NONE', #236, #162, #206, .T. ) ;
#157 = ORIENTED_EDGE ( 'NONE', *, *, #284, .T. ) ;
#158 = ORIENTED_EDGE ( 'NONE', *, *, #161, .T. ) ;
#159 = AXIS2_PLACEMENT_3D ( 'NONE', #19, #84, #64 ) ;
#160 = LINE ( 'NONE', #70, #40 ) ;
#161 = EDGE_CURVE ( 'NONE', #140, #290, #301, .T. ) ;
#162 = VERTEX_POINT ( 'NONE', #9 ) ;
#163 = EDGE_LOOP ( 'NONE', ( #265, #319, #91, #120 ) ) ;
#164 = APPROVAL_PERSON_ORGANIZATION ( #215, #44, #10 ) ;
#165 = LINE ( 'NONE', #242, #311 ) ;
#166 = DIRECTION ( 'NONE',  ( 1.000000000000000000, -1.224646799147353200E-016, 0.0000000000000000000 ) ) ;
#167 = EDGE_CURVE ( 'NONE', #131, #18, #62, .T. ) ;
#168 = LINE ( 'NONE', #273, #181 ) ;
#169 = CARTESIAN_POINT ( 'NONE',  ( 6.123233995736766300E-016, 5.000000000000000000, 5.000000000000000000 ) ) ;
#170 = AXIS2_PLACEMENT_3D ( 'NONE', #298, #299, #303 ) ;
#171 = ORIENTED_EDGE ( 'NONE', *, *, #289, .F. ) ;
#172 = CARTESIAN_POINT ( 'NONE',  ( 6.123233995736766300E-016, 5.000000000000000000, 0.0000000000000000000 ) ) ;
#173 = ADVANCED_FACE ( 'NONE', ( #127 ), #79, .F. ) ;
#174 = PLANE ( 'NONE',  #256 ) ;
#175 = CLOSED_SHELL ( 'NONE', ( #200, #106, #173, #281, #152 ) ) ;
#176 = COORDINATED_UNIVERSAL_TIME_OFFSET ( 7, 0, .BEHIND. ) ;
#177 = AXIS2_PLACEMENT_3D ( 'NONE', #228, #269, #270 ) ;
#178 = CARTESIAN_POINT ( 'NONE',  ( 6.123233995736766300E-016, 5.000000000000000000, 5.000000000000000000 ) ) ;
#179 = EDGE_LOOP ( 'NONE', ( #291, #171, #207 ) ) ;
#180 = FACE_OUTER_BOUND ( 'NONE', #163, .T. ) ;
#181 = VECTOR ( 'NONE', #221, 1000.000000000000000 ) ;
#182 = ADVANCED_BREP_SHAPE_REPRESENTATION ( 'step_47010', ( #287, #295, #94 ), #125 ) ;
#183 = APPROVAL_DATE_TIME ( #321, #73 ) ;
#184 = LINE ( 'NONE', #103, #105 ) ;
#185 = PRODUCT_RELATED_PRODUCT_CATEGORY ( 'detail', '', ( #66 ) ) ;
#186 = LINE ( 'NONE', #240, #132 ) ;
#187 = EDGE_CURVE ( 'NONE', #150, #23, #196, .T. ) ;
#188 = VERTEX_POINT ( 'NONE', #45 ) ;
#189 = APPROVAL_PERSON_ORGANIZATION ( #300, #6, #245 ) ;
#190 = CARTESIAN_POINT ( 'NONE',  ( 0.0000000000000000000, 0.0000000000000000000, 5.000000000000000000 ) ) ;
#191 = CARTESIAN_POINT ( 'NONE',  ( 5.000000000000000000, 0.0000000000000000000, 5.000000000000000000 ) ) ;
#192 = CARTESIAN_POINT ( 'NONE',  ( 5.000000000000000000, 0.0000000000000000000, 0.0000000000000000000 ) ) ;
#193 = COORDINATED_UNIVERSAL_TIME_OFFSET ( 7, 0, .BEHIND. ) ;
#194 = AXIS2_PLACEMENT_3D ( 'NONE', #219, #205, #233 ) ;
#195 = CARTESIAN_POINT ( 'NONE',  ( 5.000000000000000000, 0.0000000000000000000, 5.000000000000000000 ) ) ;
#196 = LINE ( 'NONE', #134, #139 ) ;
#197 = CARTESIAN_POINT ( 'NONE',  ( 5.000000000000000000, 0.0000000000000000000, 5.000000000000000000 ) ) ;
#198 = DIRECTION ( 'NONE',  ( 1.224646799147353200E-016, 1.000000000000000000, 0.0000000000000000000 ) ) ;
#199 = VECTOR ( 'NONE', #115, 1000.000000000000000 ) ;
#200 = ADVANCED_FACE ( 'NONE', ( #89 ), #119, .F. ) ;
#201 = PLANE ( 'NONE',  #212 ) ;
#202 = ORIENTED_EDGE ( 'NONE', *, *, #204, .F. ) ;
#203 = ORIENTED_EDGE ( 'NONE', *, *, #110, .T. ) ;
#204 = EDGE_CURVE ( 'NONE', #236, #140, #260, .T. ) ;
#205 = DIRECTION ( 'NONE',  ( 0.7071067811865475700, 0.7071067811865474600, -0.0000000000000000000 ) ) ;
#206 = LINE ( 'NONE', #305, #308 ) ;
#207 = ORIENTED_EDGE ( 'NONE', *, *, #58, .F. ) ;
#208 = ORIENTED_EDGE ( 'NONE', *, *, #156, .F. ) ;
#209 = EDGE_CURVE ( 'NONE', #140, #42, #239, .T. ) ;
#210 = DATE_AND_TIME ( #37, #122 ) ;
#211 = CARTESIAN_POINT ( 'NONE',  ( 0.0000000000000000000, 0.0000000000000000000, 0.0000000000000000000 ) ) ;
#212 = AXIS2_PLACEMENT_3D ( 'NONE', #211, #220, #223 ) ;
#213 = ORIENTED_EDGE ( 'NONE', *, *, #261, .T. ) ;
#214 = ORIENTED_EDGE ( 'NONE', *, *, #313, .F. ) ;
#215 = PERSON_AND_ORGANIZATION ( #294, #304 ) ;
#216 = CARTESIAN_POINT ( 'NONE',  ( 6.123233995736766300E-016, 5.000000000000000000, 0.0000000000000000000 ) ) ;
#217 = DIRECTION ( 'NONE',  ( 0.7071067811865474600, -0.7071067811865475700, 0.0000000000000000000 ) ) ;
#218 = CARTESIAN_POINT ( 'NONE',  ( 6.123233995736766300E-016, 5.000000000000000000, 5.000000000000000000 ) ) ;
#219 = CARTESIAN_POINT ( 'NONE',  ( 6.123233995736766300E-016, 5.000000000000000000, 5.000000000000000000 ) ) ;
#220 = DIRECTION ( 'NONE',  ( 0.0000000000000000000, 0.0000000000000000000, 1.000000000000000000 ) ) ;
#221 = DIRECTION ( 'NONE',  ( -0.0000000000000000000, -0.0000000000000000000, -1.000000000000000000 ) ) ;
#222 = FACE_OUTER_BOUND ( 'NONE', #267, .T. ) ;
#223 = DIRECTION ( 'NONE',  ( 1.000000000000000000, 0.0000000000000000000, -0.0000000000000000000 ) ) ;
#224 = PLANE ( 'NONE',  #194 ) ;
#225 = DIRECTION ( 'NONE',  ( -1.224646799147353200E-016, -1.000000000000000000, 0.0000000000000000000 ) ) ;
#226 = PERSON_AND_ORGANIZATION ( #294, #304 ) ;
#227 = DIRECTION ( 'NONE',  ( -0.7071067811865474600, 0.7071067811865475700, 0.0000000000000000000 ) ) ;
#228 = CARTESIAN_POINT ( 'NONE',  ( 0.0000000000000000000, 0.0000000000000000000, 5.000000000000000000 ) ) ;
#229 = ORIENTED_EDGE ( 'NONE', *, *, #288, .T. ) ;
#230 = PERSON_AND_ORGANIZATION ( #294, #304 ) ;
#231 = DIRECTION ( 'NONE',  ( -1.224646799147353200E-016, -1.000000000000000000, 0.0000000000000000000 ) ) ;
#232 = PERSON_AND_ORGANIZATION ( #294, #304 ) ;
#233 = DIRECTION ( 'NONE',  ( -0.7071067811865474600, 0.7071067811865475700, 0.0000000000000000000 ) ) ;
#234 = CALENDAR_DATE ( 2014, 12, 6 ) ;
#235 = UNCERTAINTY_MEASURE_WITH_UNIT (LENGTH_MEASURE( 1.000000000000000100E-005 ), #74, 'distance_accuracy_value', 'NONE');
#236 = VERTEX_POINT ( 'NONE', #154 ) ;
#237 = ORIENTED_EDGE ( 'NONE', *, *, #108, .F. ) ;
#238 = VECTOR ( 'NONE', #225, 1000.000000000000000 ) ;
#239 = LINE ( 'NONE', #195, #199 ) ;
#240 = CARTESIAN_POINT ( 'NONE',  ( 5.000000000000000000, 0.0000000000000000000, 0.0000000000000000000 ) ) ;
#241 = COORDINATED_UNIVERSAL_TIME_OFFSET ( 7, 0, .BEHIND. ) ;
#242 = CARTESIAN_POINT ( 'NONE',  ( 0.0000000000000000000, 0.0000000000000000000, 0.0000000000000000000 ) ) ;
#243 = EDGE_LOOP ( 'NONE', ( #237, #147, #307 ) ) ;
#244 = FACE_OUTER_BOUND ( 'NONE', #151, .T. ) ;
#245 = APPROVAL_ROLE ( '' ) ;
#246 = CARTESIAN_POINT ( 'NONE',  ( 4.999999999999999100, 5.000000000000000900, 5.000000000000000000 ) ) ;
#247 = COORDINATED_UNIVERSAL_TIME_OFFSET ( 7, 0, .BEHIND. ) ;
#248 = DIRECTION ( 'NONE',  ( -0.7071067811865475700, -0.7071067811865474600, 0.0000000000000000000 ) ) ;
#249 = DIRECTION ( 'NONE',  ( 1.000000000000000000, 0.0000000000000000000, 0.0000000000000000000 ) ) ;
#250 = ORIENTED_EDGE ( 'NONE', *, *, #313, .T. ) ;
#251 = VECTOR ( 'NONE', #81, 1000.000000000000000 ) ;
#252 = EDGE_CURVE ( 'NONE', #290, #236, #136, .T. ) ;
#253 = FACE_OUTER_BOUND ( 'NONE', #141, .T. ) ;
#254 = CARTESIAN_POINT ( 'NONE',  ( 6.123233995736766300E-016, 5.000000000000000000, 0.0000000000000000000 ) ) ;
#255 = ADVANCED_FACE ( 'NONE', ( #180 ), #149, .F. ) ;
#256 = AXIS2_PLACEMENT_3D ( 'NONE', #178, #166, #198 ) ;
#257 = DESIGN_CONTEXT ( 'detailed design', #25, 'design' ) ;
#258 = ORIENTED_EDGE ( 'NONE', *, *, #292, .F. ) ;
#259 = DIRECTION ( 'NONE',  ( -1.734723475976806800E-016, 1.000000000000000000, 0.0000000000000000000 ) ) ;
#260 = LINE ( 'NONE', #190, #69 ) ;
#261 = EDGE_CURVE ( 'NONE', #290, #268, #168, .T. ) ;
#262 = ORIENTED_EDGE ( 'NONE', *, *, #167, .F. ) ;
#263 = PLANE ( 'NONE',  #170 ) ;
#264 = PLANE ( 'NONE',  #177 ) ;
#265 = ORIENTED_EDGE ( 'NONE', *, *, #108, .T. ) ;
#266 = EDGE_CURVE ( 'NONE', #268, #162, #57, .T. ) ;
#267 = EDGE_LOOP ( 'NONE', ( #203, #51, #202, #100 ) ) ;
#268 = VERTEX_POINT ( 'NONE', #285 ) ;
#269 = DIRECTION ( 'NONE',  ( 0.0000000000000000000, 0.0000000000000000000, 1.000000000000000000 ) ) ;
#270 = DIRECTION ( 'NONE',  ( 1.000000000000000000, 0.0000000000000000000, -0.0000000000000000000 ) ) ;
#271 = DIRECTION ( 'NONE',  ( 0.7071067811865474600, -0.7071067811865475700, 0.0000000000000000000 ) ) ;
#272 = PERSON_AND_ORGANIZATION ( #294, #304 ) ;
#273 = CARTESIAN_POINT ( 'NONE',  ( 6.123233995736766300E-016, 5.000000000000000000, 5.000000000000000000 ) ) ;
#274 = CARTESIAN_POINT ( 'NONE',  ( 4.999999999999999100, 5.000000000000000900, 0.0000000000000000000 ) ) ;
#275 = APPROVAL_DATE_TIME ( #148, #6 ) ;
#276 = FACE_OUTER_BOUND ( 'NONE', #22, .T. ) ;
#277 = DIRECTION ( 'NONE',  ( -0.0000000000000000000, -0.0000000000000000000, -1.000000000000000000 ) ) ;
#278 = CARTESIAN_POINT ( 'NONE',  ( 5.000000000000000000, 0.0000000000000000000, 5.000000000000000000 ) ) ;
#279 = LINE ( 'NONE', #312, #251 ) ;
#280 = CARTESIAN_POINT ( 'NONE',  ( 5.000000000000000000, 0.0000000000000000000, 5.000000000000000000 ) ) ;
#281 = ADVANCED_FACE ( 'NONE', ( #253 ), #316, .F. ) ;
#282 = DIRECTION ( 'NONE',  ( -1.000000000000000000, 0.0000000000000000000, 0.0000000000000000000 ) ) ;
#283 = CALENDAR_DATE ( 2014, 12, 6 ) ;
#284 = EDGE_CURVE ( 'NONE', #18, #23, #80, .T. ) ;
#285 = CARTESIAN_POINT ( 'NONE',  ( 6.123233995736766300E-016, 5.000000000000000000, 0.0000000000000000000 ) ) ;
#286 = CARTESIAN_POINT ( 'NONE',  ( 6.123233995736766300E-016, 5.000000000000000000, 5.000000000000000000 ) ) ;
#287 = MANIFOLD_SOLID_BREP ( 'Boss-Extrude1', #52 ) ;
#288 = EDGE_CURVE ( 'NONE', #41, #131, #5, .T. ) ;
#289 = EDGE_CURVE ( 'NONE', #188, #150, #184, .T. ) ;
#290 = VERTEX_POINT ( 'NONE', #101 ) ;
#291 = ORIENTED_EDGE ( 'NONE', *, *, #187, .F. ) ;
#292 = EDGE_CURVE ( 'NONE', #18, #41, #279, .T. ) ;
#293 = VECTOR ( 'NONE', #217, 1000.000000000000000 ) ;
#294 = PERSON ( 'UNSPECIFIED', 'UNSPECIFIED', 'UNSPECIFIED', ('UNSPECIFIED'), ('UNSPECIFIED'), ('UNSPECIFIED') ) ;
#295 = MANIFOLD_SOLID_BREP ( 'Boss-Extrude2', #175 ) ;
#296 = ORIENTED_EDGE ( 'NONE', *, *, #266, .T. ) ;
#297 = ORIENTED_EDGE ( 'NONE', *, *, #167, .T. ) ;
#298 = CARTESIAN_POINT ( 'NONE',  ( 0.0000000000000000000, 0.0000000000000000000, 0.0000000000000000000 ) ) ;
#299 = DIRECTION ( 'NONE',  ( 0.0000000000000000000, 0.0000000000000000000, -1.000000000000000000 ) ) ;
#300 = PERSON_AND_ORGANIZATION ( #294, #304 ) ;
#301 = LINE ( 'NONE', #280, #124 ) ;
#302 = CARTESIAN_POINT ( 'NONE',  ( 0.0000000000000000000, 0.0000000000000000000, 5.000000000000000000 ) ) ;
#303 = DIRECTION ( 'NONE',  ( -1.000000000000000000, 0.0000000000000000000, 0.0000000000000000000 ) ) ;
#304 = ORGANIZATION ( 'UNSPECIFIED', 'UNSPECIFIED', '' ) ;
#305 = CARTESIAN_POINT ( 'NONE',  ( 0.0000000000000000000, 0.0000000000000000000, 5.000000000000000000 ) ) ;
#306 = DIRECTION ( 'NONE',  ( 0.0000000000000000000, 0.0000000000000000000, -1.000000000000000000 ) ) ;
#307 = ORIENTED_EDGE ( 'NONE', *, *, #266, .F. ) ;
#308 = VECTOR ( 'NONE', #277, 1000.000000000000000 ) ;
#309 = DIRECTION ( 'NONE',  ( -0.7071067811865474600, 0.7071067811865475700, 0.0000000000000000000 ) ) ;
#310 = ADVANCED_FACE ( 'NONE', ( #222 ), #92, .F. ) ;
#311 = VECTOR ( 'NONE', #249, 1000.000000000000000 ) ;
#312 = CARTESIAN_POINT ( 'NONE',  ( 6.123233995736766300E-016, 5.000000000000000000, 5.000000000000000000 ) ) ;
#313 = EDGE_CURVE ( 'NONE', #131, #150, #160, .T. ) ;
#314 = CARTESIAN_POINT ( 'NONE',  ( 4.999999999999999100, 5.000000000000000900, 5.000000000000000000 ) ) ;
#315 = SHAPE_DEFINITION_REPRESENTATION ( #34, #182 ) ;
#316 = PLANE ( 'NONE',  #129 ) ;
#317 = EDGE_LOOP ( 'NONE', ( #296, #208, #59, #213 ) ) ;
#318 = EDGE_CURVE ( 'NONE', #41, #188, #155, .T. ) ;
#319 = ORIENTED_EDGE ( 'NONE', *, *, #261, .F. ) ;
#320 = CARTESIAN_POINT ( 'NONE',  ( 4.999999999999999100, 5.000000000000000900, 5.000000000000000000 ) ) ;
#321 = DATE_AND_TIME ( #130, #143 ) ;
ENDSEC;
END-ISO-10303-21;
