ISO-10303-21;
HEADER;
FILE_DESCRIPTION (( 'STEP AP203' ),
    '1' );
FILE_NAME ('Web Model 48855.STEP',
    '2017-01-31T15:21:55',
    ( '' ),
    ( '' ),
    'SwSTEP 2.0',
    'SolidWorks 2016',
    '' );
FILE_SCHEMA (( 'CONFIG_CONTROL_DESIGN' ));
ENDSEC;

DATA;
#1 = ORIENTED_EDGE ( 'NONE', *, *, #4, .F. ) ;
#2 = AXIS2_PLACEMENT_3D ( 'NONE', #158, #166, #68 ) ;
#3 = APPROVAL ( #88, 'UNSPECIFIED' ) ;
#4 = EDGE_CURVE ( 'NONE', #137, #129, #121, .T. ) ;
#5 = DIRECTION ( 'NONE',  ( -0.0000000000000000000, -0.0000000000000000000, -1.000000000000000000 ) ) ;
#6 = CARTESIAN_POINT ( 'NONE',  ( 0.0000000000000000000, 0.0000000000000000000, 6.000000000000000000 ) ) ;
#7 = VERTEX_POINT ( 'NONE', #168 ) ;
#8 = CARTESIAN_POINT ( 'NONE',  ( 37.50000000000000700, 4.592425496802575200E-015, 6.000000000000000000 ) ) ;
#9 = MECHANICAL_CONTEXT ( 'NONE', #163, 'mechanical' ) ;
#10 = ORIENTED_EDGE ( 'NONE', *, *, #107, .F. ) ;
#11 = EDGE_LOOP ( 'NONE', ( #82, #10 ) ) ;
#12 = APPROVAL_STATUS ( 'not_yet_approved' ) ;
#13 = CC_DESIGN_PERSON_AND_ORGANIZATION_ASSIGNMENT ( #62, #147, ( #131 ) ) ;
#14 = ADVANCED_FACE ( 'NONE', ( #30 ), #74, .T. ) ;
#15 = AXIS2_PLACEMENT_3D ( 'NONE', #114, #157, #70 ) ;
#16 = APPROVAL_DATE_TIME ( #52, #3 ) ;
#17 = EDGE_LOOP ( 'NONE', ( #1, #111, #35, #117 ) ) ;
#18 = APPROVAL_PERSON_ORGANIZATION ( #43, #3, #24 ) ;
#19 = CC_DESIGN_DATE_AND_TIME_ASSIGNMENT ( #60, #53, ( #110 ) ) ;
#20 = DIRECTION ( 'NONE',  ( -1.000000000000000000, 0.0000000000000000000, 0.0000000000000000000 ) ) ;
#21 =( LENGTH_UNIT ( ) NAMED_UNIT ( * ) SI_UNIT ( .MILLI., .METRE. ) );
#22 = VECTOR ( 'NONE', #46, 1000.000000000000000 ) ;
#23 = CARTESIAN_POINT ( 'NONE',  ( 0.0000000000000000000, 0.0000000000000000000, 6.000000000000000000 ) ) ;
#24 = APPROVAL_ROLE ( '' ) ;
#25 = CC_DESIGN_SECURITY_CLASSIFICATION ( #131, ( #106 ) ) ;
#26 = APPROVAL_ROLE ( '' ) ;
#27 = COORDINATED_UNIVERSAL_TIME_OFFSET ( 5, 0, .BEHIND. ) ;
#28 = APPROVAL ( #42, 'UNSPECIFIED' ) ;
#29 = LOCAL_TIME ( 10, 21, 55.00000000000000000, #27 ) ;
#30 = FACE_OUTER_BOUND ( 'NONE', #17, .T. ) ;
#31 = CC_DESIGN_PERSON_AND_ORGANIZATION_ASSIGNMENT ( #132, #146, ( #106 ) ) ;
#32 = EDGE_CURVE ( 'NONE', #7, #137, #139, .T. ) ;
#33 = ADVANCED_BREP_SHAPE_REPRESENTATION ( 'Web Model 48855', ( #123, #171 ), #71 ) ;
#34 = VERTEX_POINT ( 'NONE', #49 ) ;
#35 = ORIENTED_EDGE ( 'NONE', *, *, #138, .T. ) ;
#36 = CARTESIAN_POINT ( 'NONE',  ( 0.0000000000000000000, 0.0000000000000000000, 6.000000000000000000 ) ) ;
#37 = DIRECTION ( 'NONE',  ( 0.0000000000000000000, 0.0000000000000000000, 1.000000000000000000 ) ) ;
#38 =( NAMED_UNIT ( * ) SI_UNIT ( $, .STERADIAN. ) SOLID_ANGLE_UNIT ( ) );
#39 = AXIS2_PLACEMENT_3D ( 'NONE', #23, #128, #141 ) ;
#40 = DATE_TIME_ROLE ( 'classification_date' ) ;
#41 = LOCAL_TIME ( 10, 21, 55.00000000000000000, #127 ) ;
#42 = APPROVAL_STATUS ( 'not_yet_approved' ) ;
#43 = PERSON_AND_ORGANIZATION ( #95, #77 ) ;
#44 = PRODUCT_RELATED_PRODUCT_CATEGORY ( 'detail', '', ( #98 ) ) ;
#45 = FACE_OUTER_BOUND ( 'NONE', #149, .T. ) ;
#46 = DIRECTION ( 'NONE',  ( -0.0000000000000000000, -0.0000000000000000000, -1.000000000000000000 ) ) ;
#47 = CARTESIAN_POINT ( 'NONE',  ( 0.0000000000000000000, 0.0000000000000000000, 6.000000000000000000 ) ) ;
#48 = CARTESIAN_POINT ( 'NONE',  ( 0.0000000000000000000, 0.0000000000000000000, 6.000000000000000000 ) ) ;
#49 = CARTESIAN_POINT ( 'NONE',  ( -37.50000000000000700, 0.0000000000000000000, 0.0000000000000000000 ) ) ;
#50 = APPLICATION_PROTOCOL_DEFINITION ( 'international standard', 'config_control_design', 1994, #163 ) ;
#51 = AXIS2_PLACEMENT_3D ( 'NONE', #48, #5, #20 ) ;
#52 = DATE_AND_TIME ( #93, #144 ) ;
#53 = DATE_TIME_ROLE ( 'creation_date' ) ;
#54 = PERSON_AND_ORGANIZATION_ROLE ( 'design_supplier' ) ;
#55 = AXIS2_PLACEMENT_3D ( 'NONE', #155, #109, #113 ) ;
#56 = PERSON_AND_ORGANIZATION ( #95, #77 ) ;
#57 = APPROVAL_DATE_TIME ( #89, #28 ) ;
#58 = EDGE_LOOP ( 'NONE', ( #94, #75 ) ) ;
#59 = DESIGN_CONTEXT ( 'detailed design', #115, 'design' ) ;
#60 = DATE_AND_TIME ( #175, #167 ) ;
#61 = APPLICATION_PROTOCOL_DEFINITION ( 'international standard', 'config_control_design', 1994, #115 ) ;
#62 = PERSON_AND_ORGANIZATION ( #95, #77 ) ;
#63 = ADVANCED_FACE ( 'NONE', ( #45 ), #161, .T. ) ;
#64 = AXIS2_PLACEMENT_3D ( 'NONE', #47, #37, #125 ) ;
#65 = APPROVAL_PERSON_ORGANIZATION ( #140, #28, #99 ) ;
#66 = COORDINATED_UNIVERSAL_TIME_OFFSET ( 5, 0, .BEHIND. ) ;
#67 = AXIS2_PLACEMENT_3D ( 'NONE', #6, #156, #165 ) ;
#68 = DIRECTION ( 'NONE',  ( 1.000000000000000000, 0.0000000000000000000, -0.0000000000000000000 ) ) ;
#69 = DIRECTION ( 'NONE',  ( 1.000000000000000000, 0.0000000000000000000, 0.0000000000000000000 ) ) ;
#70 = DIRECTION ( 'NONE',  ( 1.000000000000000000, 0.0000000000000000000, 0.0000000000000000000 ) ) ;
#71 =( GEOMETRIC_REPRESENTATION_CONTEXT ( 3 ) GLOBAL_UNCERTAINTY_ASSIGNED_CONTEXT ( ( #78 ) ) GLOBAL_UNIT_ASSIGNED_CONTEXT ( ( #21, #169, #38 ) ) REPRESENTATION_CONTEXT ( 'NONE', 'WORKASPACE' ) );
#72 = CARTESIAN_POINT ( 'NONE',  ( 0.0000000000000000000, 0.0000000000000000000, 0.0000000000000000000 ) ) ;
#73 = CC_DESIGN_APPROVAL ( #84, ( #106 ) ) ;
#74 = CYLINDRICAL_SURFACE ( 'NONE', #39, 37.50000000000000700 ) ;
#75 = ORIENTED_EDGE ( 'NONE', *, *, #90, .T. ) ;
#76 = CC_DESIGN_DATE_AND_TIME_ASSIGNMENT ( #102, #40, ( #131 ) ) ;
#77 = ORGANIZATION ( 'UNSPECIFIED', 'UNSPECIFIED', '' ) ;
#78 = UNCERTAINTY_MEASURE_WITH_UNIT (LENGTH_MEASURE( 1.000000000000000100E-005 ), #21, 'distance_accuracy_value', 'NONE');
#79 = COORDINATED_UNIVERSAL_TIME_OFFSET ( 5, 0, .BEHIND. ) ;
#80 = CLOSED_SHELL ( 'NONE', ( #63, #14, #162, #103 ) ) ;
#81 = DATE_AND_TIME ( #135, #41 ) ;
#82 = ORIENTED_EDGE ( 'NONE', *, *, #133, .F. ) ;
#83 = PLANE ( 'NONE',  #2 ) ;
#84 = APPROVAL ( #12, 'UNSPECIFIED' ) ;
#85 = SECURITY_CLASSIFICATION_LEVEL ( 'unclassified' ) ;
#86 = SHAPE_DEFINITION_REPRESENTATION ( #124, #33 ) ;
#87 = DIRECTION ( 'NONE',  ( 0.0000000000000000000, 0.0000000000000000000, 1.000000000000000000 ) ) ;
#88 = APPROVAL_STATUS ( 'not_yet_approved' ) ;
#89 = DATE_AND_TIME ( #172, #29 ) ;
#90 = EDGE_CURVE ( 'NONE', #137, #7, #153, .T. ) ;
#91 = APPROVAL_PERSON_ORGANIZATION ( #134, #84, #26 ) ;
#92 = AXIS2_PLACEMENT_3D ( 'NONE', #36, #160, #69 ) ;
#93 = CALENDAR_DATE ( 2017, 31, 1 ) ;
#94 = ORIENTED_EDGE ( 'NONE', *, *, #32, .T. ) ;
#95 = PERSON ( 'UNSPECIFIED', 'UNSPECIFIED', 'UNSPECIFIED', ('UNSPECIFIED'), ('UNSPECIFIED'), ('UNSPECIFIED') ) ;
#96 = CARTESIAN_POINT ( 'NONE',  ( 37.50000000000000700, 4.592425496802575200E-015, 6.000000000000000000 ) ) ;
#97 = LINE ( 'NONE', #122, #22 ) ;
#98 = PRODUCT ( 'Web Model 48855', 'Web Model 48855', '', ( #9 ) ) ;
#99 = APPROVAL_ROLE ( '' ) ;
#100 = PERSON_AND_ORGANIZATION_ROLE ( 'design_owner' ) ;
#101 = DIRECTION ( 'NONE',  ( 1.000000000000000000, 0.0000000000000000000, 0.0000000000000000000 ) ) ;
#102 = DATE_AND_TIME ( #126, #174 ) ;
#103 = ADVANCED_FACE ( 'NONE', ( #164 ), #83, .F. ) ;
#104 = PERSON_AND_ORGANIZATION ( #95, #77 ) ;
#105 = COORDINATED_UNIVERSAL_TIME_OFFSET ( 5, 0, .BEHIND. ) ;
#106 = PRODUCT_DEFINITION_FORMATION_WITH_SPECIFIED_SOURCE ( 'ANY', '', #98, .NOT_KNOWN. ) ;
#107 = EDGE_CURVE ( 'NONE', #129, #34, #173, .T. ) ;
#108 = CC_DESIGN_PERSON_AND_ORGANIZATION_ASSIGNMENT ( #56, #100, ( #98 ) ) ;
#109 = DIRECTION ( 'NONE',  ( 0.0000000000000000000, 0.0000000000000000000, 1.000000000000000000 ) ) ;
#110 = PRODUCT_DEFINITION ( 'UNKNOWN', '', #106, #59 ) ;
#111 = ORIENTED_EDGE ( 'NONE', *, *, #32, .F. ) ;
#112 = PLANE ( 'NONE',  #64 ) ;
#113 = DIRECTION ( 'NONE',  ( 1.000000000000000000, 0.0000000000000000000, 0.0000000000000000000 ) ) ;
#114 = CARTESIAN_POINT ( 'NONE',  ( 0.0000000000000000000, 0.0000000000000000000, 0.0000000000000000000 ) ) ;
#115 = APPLICATION_CONTEXT ( 'configuration controlled 3d designs of mechanical parts and assemblies' ) ;
#116 = PERSON_AND_ORGANIZATION ( #95, #77 ) ;
#117 = ORIENTED_EDGE ( 'NONE', *, *, #133, .T. ) ;
#118 = CC_DESIGN_APPROVAL ( #28, ( #131 ) ) ;
#119 = FACE_OUTER_BOUND ( 'NONE', #58, .T. ) ;
#120 = ORIENTED_EDGE ( 'NONE', *, *, #4, .T. ) ;
#121 = LINE ( 'NONE', #96, #152 ) ;
#122 = CARTESIAN_POINT ( 'NONE',  ( -37.50000000000000700, 0.0000000000000000000, 6.000000000000000000 ) ) ;
#123 = MANIFOLD_SOLID_BREP ( 'Extrude1', #80 ) ;
#124 = PRODUCT_DEFINITION_SHAPE ( 'NONE', 'NONE',  #110 ) ;
#125 = DIRECTION ( 'NONE',  ( 1.000000000000000000, 0.0000000000000000000, -0.0000000000000000000 ) ) ;
#126 = CALENDAR_DATE ( 2017, 31, 1 ) ;
#127 = COORDINATED_UNIVERSAL_TIME_OFFSET ( 5, 0, .BEHIND. ) ;
#128 = DIRECTION ( 'NONE',  ( -0.0000000000000000000, -0.0000000000000000000, -1.000000000000000000 ) ) ;
#129 = VERTEX_POINT ( 'NONE', #170 ) ;
#130 = PERSON_AND_ORGANIZATION_ROLE ( 'creator' ) ;
#131 = SECURITY_CLASSIFICATION ( '', '', #85 ) ;
#132 = PERSON_AND_ORGANIZATION ( #95, #77 ) ;
#133 = EDGE_CURVE ( 'NONE', #34, #129, #136, .T. ) ;
#134 = PERSON_AND_ORGANIZATION ( #95, #77 ) ;
#135 = CALENDAR_DATE ( 2017, 31, 1 ) ;
#136 = CIRCLE ( 'NONE', #55, 37.50000000000000700 ) ;
#137 = VERTEX_POINT ( 'NONE', #8 ) ;
#138 = EDGE_CURVE ( 'NONE', #7, #34, #97, .T. ) ;
#139 = CIRCLE ( 'NONE', #67, 37.50000000000000700 ) ;
#140 = PERSON_AND_ORGANIZATION ( #95, #77 ) ;
#141 = DIRECTION ( 'NONE',  ( -1.000000000000000000, 0.0000000000000000000, 0.0000000000000000000 ) ) ;
#142 = DIRECTION ( 'NONE',  ( -0.0000000000000000000, -0.0000000000000000000, -1.000000000000000000 ) ) ;
#143 = CC_DESIGN_PERSON_AND_ORGANIZATION_ASSIGNMENT ( #116, #130, ( #110 ) ) ;
#144 = LOCAL_TIME ( 10, 21, 55.00000000000000000, #79 ) ;
#145 = ORIENTED_EDGE ( 'NONE', *, *, #107, .T. ) ;
#146 = PERSON_AND_ORGANIZATION_ROLE ( 'creator' ) ;
#147 = PERSON_AND_ORGANIZATION_ROLE ( 'classification_officer' ) ;
#148 = CC_DESIGN_APPROVAL ( #3, ( #110 ) ) ;
#149 = EDGE_LOOP ( 'NONE', ( #159, #120, #145, #154 ) ) ;
#150 = CC_DESIGN_PERSON_AND_ORGANIZATION_ASSIGNMENT ( #104, #54, ( #106 ) ) ;
#151 = APPROVAL_DATE_TIME ( #81, #84 ) ;
#152 = VECTOR ( 'NONE', #142, 1000.000000000000000 ) ;
#153 = CIRCLE ( 'NONE', #92, 37.50000000000000700 ) ;
#154 = ORIENTED_EDGE ( 'NONE', *, *, #138, .F. ) ;
#155 = CARTESIAN_POINT ( 'NONE',  ( 0.0000000000000000000, 0.0000000000000000000, 0.0000000000000000000 ) ) ;
#156 = DIRECTION ( 'NONE',  ( 0.0000000000000000000, 0.0000000000000000000, 1.000000000000000000 ) ) ;
#157 = DIRECTION ( 'NONE',  ( 0.0000000000000000000, 0.0000000000000000000, 1.000000000000000000 ) ) ;
#158 = CARTESIAN_POINT ( 'NONE',  ( 0.0000000000000000000, 0.0000000000000000000, 0.0000000000000000000 ) ) ;
#159 = ORIENTED_EDGE ( 'NONE', *, *, #90, .F. ) ;
#160 = DIRECTION ( 'NONE',  ( 0.0000000000000000000, 0.0000000000000000000, 1.000000000000000000 ) ) ;
#161 = CYLINDRICAL_SURFACE ( 'NONE', #51, 37.50000000000000700 ) ;
#162 = ADVANCED_FACE ( 'NONE', ( #119 ), #112, .T. ) ;
#163 = APPLICATION_CONTEXT ( 'configuration controlled 3d designs of mechanical parts and assemblies' ) ;
#164 = FACE_OUTER_BOUND ( 'NONE', #11, .T. ) ;
#165 = DIRECTION ( 'NONE',  ( 1.000000000000000000, 0.0000000000000000000, 0.0000000000000000000 ) ) ;
#166 = DIRECTION ( 'NONE',  ( 0.0000000000000000000, 0.0000000000000000000, 1.000000000000000000 ) ) ;
#167 = LOCAL_TIME ( 10, 21, 55.00000000000000000, #105 ) ;
#168 = CARTESIAN_POINT ( 'NONE',  ( -37.50000000000000700, 0.0000000000000000000, 6.000000000000000000 ) ) ;
#169 =( NAMED_UNIT ( * ) PLANE_ANGLE_UNIT ( ) SI_UNIT ( $, .RADIAN. ) );
#170 = CARTESIAN_POINT ( 'NONE',  ( 37.50000000000000700, 4.592425496802575200E-015, 0.0000000000000000000 ) ) ;
#171 = AXIS2_PLACEMENT_3D ( 'NONE', #72, #87, #101 ) ;
#172 = CALENDAR_DATE ( 2017, 31, 1 ) ;
#173 = CIRCLE ( 'NONE', #15, 37.50000000000000700 ) ;
#174 = LOCAL_TIME ( 10, 21, 55.00000000000000000, #66 ) ;
#175 = CALENDAR_DATE ( 2017, 31, 1 ) ;
ENDSEC;
END-ISO-10303-21;
