ISO-10303-21;
HEADER;
FILE_DESCRIPTION (( 'STEP AP203' ),
    '1' );
FILE_NAME ('20216-E0W.STEP',
    '2009-09-14T20:07:23',
    ( 'Admin' ),
    ( 'Thorlabs, Inc.' ),
    'SwSTEP 2.0',
    'SolidWorks 2007',
    '' );
FILE_SCHEMA (( 'CONFIG_CONTROL_DESIGN' ));
ENDSEC;

DATA;
#1 = ORIENTED_EDGE ( 'NONE', *, *, #2, .F. ) ;
#2 = EDGE_CURVE ( 'NONE', #57, #4, #32, .T. ) ;
#3 = EDGE_CURVE ( 'NONE', #12, #11, #101, .T. ) ;
#4 = VERTEX_POINT ( 'NONE', #97 ) ;
#5 = EDGE_CURVE ( 'NONE', #60, #57, #76, .T. ) ;
#6 = EDGE_LOOP ( 'NONE', ( #22, #9, #62 ) ) ;
#7 = EDGE_CURVE ( 'NONE', #60, #11, #74, .T. ) ;
#8 = ADVANCED_FACE ( 'NONE', ( #72 ), #116, .T. ) ;
#9 = ORIENTED_EDGE ( 'NONE', *, *, #3, .T. ) ;
#10 = ORIENTED_EDGE ( 'NONE', *, *, #58, .T. ) ;
#11 = VERTEX_POINT ( 'NONE', #117 ) ;
#12 = VERTEX_POINT ( 'NONE', #124 ) ;
#13 = DIRECTION ( 'NONE',  ( 0.0000000000000000000, -1.836909530733566100E-016, 1.000000000000000000 ) ) ;
#14 = LOCAL_TIME ( 16, 7, 23.00000000000000000, #28 ) ;
#15 = ADVANCED_FACE ( 'NONE', ( #123 ), #122, .T. ) ;
#16 = EDGE_CURVE ( 'NONE', #12, #60, #114, .T. ) ;
#17 = APPROVAL_ROLE ( '' ) ;
#18 = DATE_AND_TIME ( #19, #14 ) ;
#19 = CALENDAR_DATE ( 2009, 14, 9 ) ;
#20 = ORIENTED_EDGE ( 'NONE', *, *, #46, .T. ) ;
#21 = APPROVAL ( #160, 'UNSPECIFIED' ) ;
#22 = ORIENTED_EDGE ( 'NONE', *, *, #16, .F. ) ;
#23 = CC_DESIGN_APPROVAL ( #21, ( #171 ) ) ;
#24 = APPROVAL_DATE_TIME ( #18, #21 ) ;
#25 = EDGE_LOOP ( 'NONE', ( #26, #20, #54, #55 ) ) ;
#26 = ORIENTED_EDGE ( 'NONE', *, *, #58, .F. ) ;
#27 = APPROVAL_PERSON_ORGANIZATION ( #161, #21, #17 ) ;
#28 = COORDINATED_UNIVERSAL_TIME_OFFSET ( 5, 0, .BEHIND. ) ;
#29 = DIRECTION ( 'NONE',  ( 0.0000000000000000000, -1.000000000000000000, -2.048885995248197200E-016 ) ) ;
#30 = CARTESIAN_POINT ( 'NONE',  ( 0.0000000000000000000, -4.727672286027495400E-016, 4.573709922523788900 ) ) ;
#31 = AXIS2_PLACEMENT_3D ( 'NONE', #30, #13, #29 ) ;
#32 = CIRCLE ( 'NONE', #31, 12.70000000000000100 ) ;
#33 = CC_DESIGN_SECURITY_CLASSIFICATION ( #171, ( #149 ) ) ;
#34 = PRODUCT_DEFINITION_SHAPE ( 'NONE', 'NONE',  #209 ) ;
#35 = PRODUCT_RELATED_PRODUCT_CATEGORY ( 'detail', '', ( #127 ) ) ;
#36 = SHAPE_DEFINITION_REPRESENTATION ( #34, #174 ) ;
#37 = MANIFOLD_SOLID_BREP ( 'NONE', #56 ) ;
#38 = ORIENTED_EDGE ( 'NONE', *, *, #67, .T. ) ;
#39 = ORIENTED_EDGE ( 'NONE', *, *, #40, .T. ) ;
#40 = EDGE_CURVE ( 'NONE', #4, #57, #105, .T. ) ;
#41 = ADVANCED_FACE ( 'NONE', ( #81 ), #77, .T. ) ;
#42 = EDGE_LOOP ( 'NONE', ( #43, #44, #45 ) ) ;
#43 = ORIENTED_EDGE ( 'NONE', *, *, #3, .F. ) ;
#44 = ORIENTED_EDGE ( 'NONE', *, *, #16, .T. ) ;
#45 = ORIENTED_EDGE ( 'NONE', *, *, #46, .F. ) ;
#46 = EDGE_CURVE ( 'NONE', #11, #60, #94, .T. ) ;
#47 = ADVANCED_FACE ( 'NONE', ( #95 ), #108, .F. ) ;
#48 = EDGE_LOOP ( 'NONE', ( #49, #38, #39 ) ) ;
#49 = ORIENTED_EDGE ( 'NONE', *, *, #53, .F. ) ;
#50 = ADVANCED_FACE ( 'NONE', ( #159 ), #179, .T. ) ;
#51 = EDGE_LOOP ( 'NONE', ( #59, #10, #1, #61 ) ) ;
#52 = ORIENTED_EDGE ( 'NONE', *, *, #53, .T. ) ;
#53 = EDGE_CURVE ( 'NONE', #65, #57, #199, .T. ) ;
#54 = ORIENTED_EDGE ( 'NONE', *, *, #5, .T. ) ;
#55 = ORIENTED_EDGE ( 'NONE', *, *, #40, .F. ) ;
#56 = CLOSED_SHELL ( 'NONE', ( #50, #8, #63, #47, #41, #15 ) ) ;
#57 = VERTEX_POINT ( 'NONE', #156 ) ;
#58 = EDGE_CURVE ( 'NONE', #11, #4, #155, .T. ) ;
#59 = ORIENTED_EDGE ( 'NONE', *, *, #7, .T. ) ;
#60 = VERTEX_POINT ( 'NONE', #185 ) ;
#61 = ORIENTED_EDGE ( 'NONE', *, *, #5, .F. ) ;
#62 = ORIENTED_EDGE ( 'NONE', *, *, #7, .F. ) ;
#63 = ADVANCED_FACE ( 'NONE', ( #158 ), #157, .F. ) ;
#64 = EDGE_LOOP ( 'NONE', ( #66, #52, #68 ) ) ;
#65 = VERTEX_POINT ( 'NONE', #190 ) ;
#66 = ORIENTED_EDGE ( 'NONE', *, *, #67, .F. ) ;
#67 = EDGE_CURVE ( 'NONE', #65, #4, #184, .T. ) ;
#68 = ORIENTED_EDGE ( 'NONE', *, *, #2, .T. ) ;
#69 = DIRECTION ( 'NONE',  ( 0.0000000000000000000, -1.836909530733566100E-016, 1.000000000000000000 ) ) ;
#70 = CARTESIAN_POINT ( 'NONE',  ( 0.0000000000000000000, 1.832418624198877500E-016, 1.002444816393812900 ) ) ;
#71 = AXIS2_PLACEMENT_3D ( 'NONE', #70, #69, #121 ) ;
#72 = FACE_OUTER_BOUND ( 'NONE', #6, .T. ) ;
#73 = CARTESIAN_POINT ( 'NONE',  ( 0.0000000000000000000, 0.0000000000000000000, 26.36100000000000400 ) ) ;
#74 = CIRCLE ( 'NONE', #71, 12.70000000000000100 ) ;
#75 = CARTESIAN_POINT ( 'NONE',  ( 0.0000000000000000000, -12.70000000000000100, 1.999999999999997800 ) ) ;
#76 = LINE ( 'NONE', #75, #120 ) ;
#77 = SPHERICAL_SURFACE ( 'NONE', #88, 28.36100000000000400 ) ;
#78 = DIRECTION ( 'NONE',  ( 0.0000000000000000000, -1.000000000000000000, -2.048885995248197200E-016 ) ) ;
#79 = DIRECTION ( 'NONE',  ( 0.0000000000000000000, -1.836909530733566100E-016, 1.000000000000000000 ) ) ;
#80 = AXIS2_PLACEMENT_3D ( 'NONE', #115, #79, #78 ) ;
#81 = FACE_OUTER_BOUND ( 'NONE', #42, .T. ) ;
#82 = DIRECTION ( 'NONE',  ( 0.0000000000000000000, -1.000000000000000000, -2.446632313355392200E-016 ) ) ;
#83 = DIRECTION ( 'NONE',  ( 1.000000000000000000, 0.0000000000000000000, 0.0000000000000000000 ) ) ;
#84 = CARTESIAN_POINT ( 'NONE',  ( 0.0000000000000000000, 0.0000000000000000000, 26.36100000000000400 ) ) ;
#85 = AXIS2_PLACEMENT_3D ( 'NONE', #84, #83, #82 ) ;
#86 = DIRECTION ( 'NONE',  ( 1.000000000000000000, 0.0000000000000000000, 0.0000000000000000000 ) ) ;
#87 = CARTESIAN_POINT ( 'NONE',  ( 0.0000000000000000000, 0.0000000000000000000, 26.36100000000000400 ) ) ;
#88 = AXIS2_PLACEMENT_3D ( 'NONE', #87, #86, #96 ) ;
#89 = DIRECTION ( 'NONE',  ( 0.0000000000000000000, 1.000000000000000000, 2.127124828762829800E-016 ) ) ;
#90 = DIRECTION ( 'NONE',  ( -1.000000000000000000, 0.0000000000000000000, 0.0000000000000000000 ) ) ;
#91 = CARTESIAN_POINT ( 'NONE',  ( 0.0000000000000000000, 0.0000000000000000000, 34.62100000000000200 ) ) ;
#92 = AXIS2_PLACEMENT_3D ( 'NONE', #91, #90, #89 ) ;
#93 = AXIS2_PLACEMENT_3D ( 'NONE', #111, #110, #109 ) ;
#94 = CIRCLE ( 'NONE', #93, 12.70000000000000100 ) ;
#95 = FACE_OUTER_BOUND ( 'NONE', #48, .T. ) ;
#96 = DIRECTION ( 'NONE',  ( 0.0000000000000000000, -1.000000000000000000, -2.446632313355392200E-016 ) ) ;
#97 = CARTESIAN_POINT ( 'NONE',  ( 0.0000000000000000000, 12.69999999999999900, 4.573709922523792500 ) ) ;
#98 = AXIS2_PLACEMENT_3D ( 'NONE', #73, #112, #118 ) ;
#99 = CARTESIAN_POINT ( 'NONE',  ( 0.0000000000000000000, 0.0000000000000000000, 2.000000000000000000 ) ) ;
#100 = AXIS2_PLACEMENT_3D ( 'NONE', #99, #104, #103 ) ;
#101 = CIRCLE ( 'NONE', #98, 28.36100000000000400 ) ;
#102 = CARTESIAN_POINT ( 'NONE',  ( 0.0000000000000000000, 0.0000000000000000000, 26.36100000000000400 ) ) ;
#103 = DIRECTION ( 'NONE',  ( 0.0000000000000000000, -1.000000000000000000, -1.707404996040164300E-016 ) ) ;
#104 = DIRECTION ( 'NONE',  ( 0.0000000000000000000, -1.836909530733566100E-016, 1.000000000000000000 ) ) ;
#105 = CIRCLE ( 'NONE', #80, 12.70000000000000100 ) ;
#106 = DIRECTION ( 'NONE',  ( 0.0000000000000000000, 0.0000000000000000000, 1.000000000000000000 ) ) ;
#107 = DIRECTION ( 'NONE',  ( -1.000000000000000000, 0.0000000000000000000, 0.0000000000000000000 ) ) ;
#108 = SPHERICAL_SURFACE ( 'NONE', #92, 32.62100000000000200 ) ;
#109 = DIRECTION ( 'NONE',  ( 0.0000000000000000000, -1.000000000000000000, -1.878145495644180800E-016 ) ) ;
#110 = DIRECTION ( 'NONE',  ( 0.0000000000000000000, -1.836909530733566100E-016, 1.000000000000000000 ) ) ;
#111 = CARTESIAN_POINT ( 'NONE',  ( 0.0000000000000000000, 1.832418624198877500E-016, 1.002444816393812900 ) ) ;
#112 = DIRECTION ( 'NONE',  ( 1.000000000000000000, -1.224606353822377300E-016, -2.249491082733206400E-032 ) ) ;
#113 = AXIS2_PLACEMENT_3D ( 'NONE', #102, #107, #106 ) ;
#114 = CIRCLE ( 'NONE', #113, 28.36100000000000400 ) ;
#115 = CARTESIAN_POINT ( 'NONE',  ( 0.0000000000000000000, -4.727672286027495400E-016, 4.573709922523788900 ) ) ;
#116 = SPHERICAL_SURFACE ( 'NONE', #85, 28.36100000000000400 ) ;
#117 = CARTESIAN_POINT ( 'NONE',  ( 1.555250069354418500E-015, 12.69999999999999900, 1.002444816393817100 ) ) ;
#118 = DIRECTION ( 'NONE',  ( 1.224606353822377300E-016, 1.000000000000000000, 0.0000000000000000000 ) ) ;
#119 = DIRECTION ( 'NONE',  ( 0.0000000000000000000, -1.836909530733566100E-016, 1.000000000000000000 ) ) ;
#120 = VECTOR ( 'NONE', #119, 1000.000000000000000 ) ;
#121 = DIRECTION ( 'NONE',  ( 0.0000000000000000000, -1.000000000000000000, -1.878145495644180800E-016 ) ) ;
#122 = CYLINDRICAL_SURFACE ( 'NONE', #100, 12.70000000000000100 ) ;
#123 = FACE_OUTER_BOUND ( 'NONE', #25, .T. ) ;
#124 = CARTESIAN_POINT ( 'NONE',  ( 0.0000000000000000000, 3.473106080075645500E-015, -2.000000000000001800 ) ) ;
#125 = DIRECTION ( 'NONE',  ( 0.0000000000000000000, -1.836909530733566100E-016, 1.000000000000000000 ) ) ;
#126 = PERSON ( 'UNSPECIFIED', 'UNSPECIFIED', 'UNSPECIFIED', ('UNSPECIFIED'), ('UNSPECIFIED'), ('UNSPECIFIED') ) ;
#127 = PRODUCT ( '20216-E0W', '20216-E0W', '', ( #128 ) ) ;
#128 = MECHANICAL_CONTEXT ( 'NONE', #196, 'mechanical' ) ;
#129 = DIRECTION ( 'NONE',  ( -1.000000000000000000, 1.224606353822377300E-016, 2.249491082733206400E-032 ) ) ;
#130 = CARTESIAN_POINT ( 'NONE',  ( 0.0000000000000000000, 0.0000000000000000000, 34.62100000000000200 ) ) ;
#131 =( LENGTH_UNIT ( ) NAMED_UNIT ( * ) SI_UNIT ( .MILLI., .METRE. ) );
#132 = AXIS2_PLACEMENT_3D ( 'NONE', #225, #125, #226 ) ;
#133 = PERSON_AND_ORGANIZATION_ROLE ( 'design_supplier' ) ;
#134 = PERSON_AND_ORGANIZATION ( #126, #180 ) ;
#135 = CC_DESIGN_PERSON_AND_ORGANIZATION_ASSIGNMENT ( #137, #136, ( #149 ) ) ;
#136 = PERSON_AND_ORGANIZATION_ROLE ( 'creator' ) ;
#137 = PERSON_AND_ORGANIZATION ( #126, #180 ) ;
#138 = CC_DESIGN_APPROVAL ( #146, ( #149 ) ) ;
#139 = APPROVAL_DATE_TIME ( #140, #146 ) ;
#140 = DATE_AND_TIME ( #141, #142 ) ;
#141 = CALENDAR_DATE ( 2009, 14, 9 ) ;
#142 = LOCAL_TIME ( 16, 7, 23.00000000000000000, #143 ) ;
#143 = COORDINATED_UNIVERSAL_TIME_OFFSET ( 5, 0, .BEHIND. ) ;
#144 = APPROVAL_PERSON_ORGANIZATION ( #148, #146, #145 ) ;
#145 = APPROVAL_ROLE ( '' ) ;
#146 = APPROVAL ( #147, 'UNSPECIFIED' ) ;
#147 = APPROVAL_STATUS ( 'not_yet_approved' ) ;
#148 = PERSON_AND_ORGANIZATION ( #126, #180 ) ;
#149 = PRODUCT_DEFINITION_FORMATION_WITH_SPECIFIED_SOURCE ( 'ANY', '', #127, .NOT_KNOWN. ) ;
#150 = CC_DESIGN_DATE_AND_TIME_ASSIGNMENT ( #152, #151, ( #209 ) ) ;
#151 = DATE_TIME_ROLE ( 'creation_date' ) ;
#152 = DATE_AND_TIME ( #153, #154 ) ;
#153 = CALENDAR_DATE ( 2009, 14, 9 ) ;
#154 = LOCAL_TIME ( 16, 7, 23.00000000000000000, #215 ) ;
#155 = LINE ( 'NONE', #214, #187 ) ;
#156 = CARTESIAN_POINT ( 'NONE',  ( -1.555250069354419300E-015, -12.69999999999999400, 4.573709922523788900 ) ) ;
#157 = SPHERICAL_SURFACE ( 'NONE', #189, 32.62100000000000200 ) ;
#158 = FACE_OUTER_BOUND ( 'NONE', #64, .T. ) ;
#159 = FACE_OUTER_BOUND ( 'NONE', #51, .T. ) ;
#160 = APPROVAL_STATUS ( 'not_yet_approved' ) ;
#161 = PERSON_AND_ORGANIZATION ( #126, #180 ) ;
#162 = CC_DESIGN_DATE_AND_TIME_ASSIGNMENT ( #164, #163, ( #171 ) ) ;
#163 = DATE_TIME_ROLE ( 'classification_date' ) ;
#164 = DATE_AND_TIME ( #165, #166 ) ;
#165 = CALENDAR_DATE ( 2009, 14, 9 ) ;
#166 = LOCAL_TIME ( 16, 7, 23.00000000000000000, #167 ) ;
#167 = COORDINATED_UNIVERSAL_TIME_OFFSET ( 5, 0, .BEHIND. ) ;
#168 = CC_DESIGN_PERSON_AND_ORGANIZATION_ASSIGNMENT ( #170, #169, ( #171 ) ) ;
#169 = PERSON_AND_ORGANIZATION_ROLE ( 'classification_officer' ) ;
#170 = PERSON_AND_ORGANIZATION ( #126, #180 ) ;
#171 = SECURITY_CLASSIFICATION ( '', '', #172 ) ;
#172 = SECURITY_CLASSIFICATION_LEVEL ( 'unclassified' ) ;
#173 = CC_DESIGN_PERSON_AND_ORGANIZATION_ASSIGNMENT ( #134, #133, ( #149 ) ) ;
#174 = ADVANCED_BREP_SHAPE_REPRESENTATION ( '20216-E0W', ( #37, #176 ), #175 ) ;
#175 =( GEOMETRIC_REPRESENTATION_CONTEXT ( 3 ) GLOBAL_UNCERTAINTY_ASSIGNED_CONTEXT ( ( #197 ) ) GLOBAL_UNIT_ASSIGNED_CONTEXT ( ( #131, #213, #198 ) ) REPRESENTATION_CONTEXT ( 'NONE', 'WORKASPACE' ) );
#176 = AXIS2_PLACEMENT_3D ( 'NONE', #177, #178, #227 ) ;
#177 = CARTESIAN_POINT ( 'NONE',  ( 0.0000000000000000000, 0.0000000000000000000, 0.0000000000000000000 ) ) ;
#178 = DIRECTION ( 'NONE',  ( 0.0000000000000000000, 0.0000000000000000000, 1.000000000000000000 ) ) ;
#179 = CYLINDRICAL_SURFACE ( 'NONE', #132, 12.70000000000000100 ) ;
#180 = ORGANIZATION ( 'UNSPECIFIED', 'UNSPECIFIED', '' ) ;
#181 = DIRECTION ( 'NONE',  ( -1.224606353822377300E-016, -1.000000000000000000, 0.0000000000000000000 ) ) ;
#182 = DIRECTION ( 'NONE',  ( 0.0000000000000000000, 0.0000000000000000000, -1.000000000000000000 ) ) ;
#183 = AXIS2_PLACEMENT_3D ( 'NONE', #191, #192, #182 ) ;
#184 = CIRCLE ( 'NONE', #183, 32.62100000000000200 ) ;
#185 = CARTESIAN_POINT ( 'NONE',  ( 0.0000000000000000000, -12.69999999999999600, 1.002444816393811100 ) ) ;
#186 = DIRECTION ( 'NONE',  ( 0.0000000000000000000, -1.836909530733566100E-016, 1.000000000000000000 ) ) ;
#187 = VECTOR ( 'NONE', #186, 1000.000000000000000 ) ;
#188 = CARTESIAN_POINT ( 'NONE',  ( 0.0000000000000000000, 0.0000000000000000000, 34.62100000000000200 ) ) ;
#189 = AXIS2_PLACEMENT_3D ( 'NONE', #188, #194, #193 ) ;
#190 = CARTESIAN_POINT ( 'NONE',  ( 0.0000000000000000000, 7.989576773607954500E-015, 1.999999999999994900 ) ) ;
#191 = CARTESIAN_POINT ( 'NONE',  ( 0.0000000000000000000, 0.0000000000000000000, 34.62100000000000200 ) ) ;
#192 = DIRECTION ( 'NONE',  ( 1.000000000000000000, 0.0000000000000000000, 0.0000000000000000000 ) ) ;
#193 = DIRECTION ( 'NONE',  ( 0.0000000000000000000, 1.000000000000000000, 2.127124828762829800E-016 ) ) ;
#194 = DIRECTION ( 'NONE',  ( -1.000000000000000000, 0.0000000000000000000, 0.0000000000000000000 ) ) ;
#195 = APPLICATION_PROTOCOL_DEFINITION ( 'international standard', 'config_control_design', 1994, #196 ) ;
#196 = APPLICATION_CONTEXT ( 'configuration controlled 3d designs of mechanical parts and assemblies' ) ;
#197 = UNCERTAINTY_MEASURE_WITH_UNIT (LENGTH_MEASURE( 1.000000000000000100E-005 ), #131, 'distance_accuracy_value', 'NONE');
#198 =( NAMED_UNIT ( * ) SI_UNIT ( $, .STERADIAN. ) SOLID_ANGLE_UNIT ( ) );
#199 = CIRCLE ( 'NONE', #200, 32.62100000000000200 ) ;
#200 = AXIS2_PLACEMENT_3D ( 'NONE', #130, #129, #181 ) ;
#201 = CC_DESIGN_PERSON_AND_ORGANIZATION_ASSIGNMENT ( #203, #202, ( #127 ) ) ;
#202 = PERSON_AND_ORGANIZATION_ROLE ( 'design_owner' ) ;
#203 = PERSON_AND_ORGANIZATION ( #126, #180 ) ;
#204 = APPROVAL_PERSON_ORGANIZATION ( #208, #206, #205 ) ;
#205 = APPROVAL_ROLE ( '' ) ;
#206 = APPROVAL ( #207, 'UNSPECIFIED' ) ;
#207 = APPROVAL_STATUS ( 'not_yet_approved' ) ;
#208 = PERSON_AND_ORGANIZATION ( #126, #180 ) ;
#209 = PRODUCT_DEFINITION ( 'UNKNOWN', '', #149, #210 ) ;
#210 = DESIGN_CONTEXT ( 'detailed design', #212, 'design' ) ;
#211 = APPLICATION_PROTOCOL_DEFINITION ( 'international standard', 'config_control_design', 1994, #212 ) ;
#212 = APPLICATION_CONTEXT ( 'configuration controlled 3d designs of mechanical parts and assemblies' ) ;
#213 =( NAMED_UNIT ( * ) PLANE_ANGLE_UNIT ( ) SI_UNIT ( $, .RADIAN. ) );
#214 = CARTESIAN_POINT ( 'NONE',  ( 1.555250069354419300E-015, 12.70000000000000100, 2.000000000000002200 ) ) ;
#215 = COORDINATED_UNIVERSAL_TIME_OFFSET ( 5, 0, .BEHIND. ) ;
#216 = CC_DESIGN_PERSON_AND_ORGANIZATION_ASSIGNMENT ( #218, #217, ( #209 ) ) ;
#217 = PERSON_AND_ORGANIZATION_ROLE ( 'creator' ) ;
#218 = PERSON_AND_ORGANIZATION ( #126, #180 ) ;
#219 = CC_DESIGN_APPROVAL ( #206, ( #209 ) ) ;
#220 = APPROVAL_DATE_TIME ( #221, #206 ) ;
#221 = DATE_AND_TIME ( #222, #223 ) ;
#222 = CALENDAR_DATE ( 2009, 14, 9 ) ;
#223 = LOCAL_TIME ( 16, 7, 23.00000000000000000, #224 ) ;
#224 = COORDINATED_UNIVERSAL_TIME_OFFSET ( 5, 0, .BEHIND. ) ;
#225 = CARTESIAN_POINT ( 'NONE',  ( 0.0000000000000000000, 0.0000000000000000000, 2.000000000000000000 ) ) ;
#226 = DIRECTION ( 'NONE',  ( 0.0000000000000000000, -1.000000000000000000, -1.707404996040164300E-016 ) ) ;
#227 = DIRECTION ( 'NONE',  ( 1.000000000000000000, 0.0000000000000000000, 0.0000000000000000000 ) ) ;
ENDSEC;
END-ISO-10303-21;
