ISO-10303-21;
HEADER;
FILE_DESCRIPTION (( 'STEP AP203' ),
    '1' );
FILE_NAME ('34526_Default.step',
    '2017-06-22T15:02:17',
    ( '' ),
    ( '' ),
    'SwSTEP 2.0',
    'SolidWorks 2016',
    '' );
FILE_SCHEMA (( 'CONFIG_CONTROL_DESIGN' ));
ENDSEC;

DATA;
#1 = CIRCLE ( 'NONE', #58, 12.50000000000000000 ) ;
#2 = AXIS2_PLACEMENT_3D ( 'NONE', #67, #3, #165 ) ;
#3 = DIRECTION ( 'NONE',  ( 0.0000000000000000000, 0.0000000000000000000, 1.000000000000000000 ) ) ;
#4 = VERTEX_POINT ( 'NONE', #48 ) ;
#5 = ORIENTED_EDGE ( 'NONE', *, *, #70, .F. ) ;
#6 = CC_DESIGN_SECURITY_CLASSIFICATION ( #65, ( #66 ) ) ;
#7 = COORDINATED_UNIVERSAL_TIME_OFFSET ( 5, 0, .BEHIND. ) ;
#8 = CARTESIAN_POINT ( 'NONE',  ( 0.0000000000000000000, 0.0000000000000000000, -0.5500000000000000400 ) ) ;
#9 = FACE_OUTER_BOUND ( 'NONE', #23, .T. ) ;
#10 = DIRECTION ( 'NONE',  ( -0.0000000000000000000, -0.0000000000000000000, -1.000000000000000000 ) ) ;
#11 = PERSON_AND_ORGANIZATION ( #38, #158 ) ;
#12 = LINE ( 'NONE', #26, #144 ) ;
#13 = LOCAL_TIME ( 11, 2, 17.00000000000000000, #59 ) ;
#14 = PERSON_AND_ORGANIZATION ( #38, #158 ) ;
#15 = ADVANCED_FACE ( 'NONE', ( #72 ), #152, .F. ) ;
#16 = APPLICATION_CONTEXT ( 'configuration controlled 3d designs of mechanical parts and assemblies' ) ;
#17 = CARTESIAN_POINT ( 'NONE',  ( 0.0000000000000000000, 0.0000000000000000000, 0.5500000000000000400 ) ) ;
#18 = APPROVAL ( #166, 'UNSPECIFIED' ) ;
#19 = DIRECTION ( 'NONE',  ( 0.0000000000000000000, 0.0000000000000000000, 1.000000000000000000 ) ) ;
#20 = PRODUCT ( '34526_Default', '34526_Default', '', ( #96 ) ) ;
#21 = CYLINDRICAL_SURFACE ( 'NONE', #99, 12.50000000000000000 ) ;
#22 = CARTESIAN_POINT ( 'NONE',  ( -12.50000000000000000, 0.0000000000000000000, 0.5500000000000000400 ) ) ;
#23 = EDGE_LOOP ( 'NONE', ( #123, #71, #46, #95 ) ) ;
#24 = DIRECTION ( 'NONE',  ( 1.000000000000000000, 0.0000000000000000000, -0.0000000000000000000 ) ) ;
#25 = CC_DESIGN_PERSON_AND_ORGANIZATION_ASSIGNMENT ( #116, #37, ( #66 ) ) ;
#26 = CARTESIAN_POINT ( 'NONE',  ( -12.50000000000000000, 0.0000000000000000000, 0.5500000000000000400 ) ) ;
#27 = EDGE_CURVE ( 'NONE', #40, #114, #42, .T. ) ;
#28 = CYLINDRICAL_SURFACE ( 'NONE', #162, 12.50000000000000000 ) ;
#29 = CC_DESIGN_APPROVAL ( #50, ( #65 ) ) ;
#30 = UNCERTAINTY_MEASURE_WITH_UNIT (LENGTH_MEASURE( 1.000000000000000100E-005 ), #56, 'distance_accuracy_value', 'NONE');
#31 = CARTESIAN_POINT ( 'NONE',  ( 0.0000000000000000000, 0.0000000000000000000, 0.5500000000000000400 ) ) ;
#32 = APPROVAL ( #79, 'UNSPECIFIED' ) ;
#33 = CIRCLE ( 'NONE', #113, 12.50000000000000000 ) ;
#34 = CC_DESIGN_APPROVAL ( #18, ( #66 ) ) ;
#35 = DESIGN_CONTEXT ( 'detailed design', #16, 'design' ) ;
#36 = CLOSED_SHELL ( 'NONE', ( #115, #103, #129, #15 ) ) ;
#37 = PERSON_AND_ORGANIZATION_ROLE ( 'design_supplier' ) ;
#38 = PERSON ( 'UNSPECIFIED', 'UNSPECIFIED', 'UNSPECIFIED', ('UNSPECIFIED'), ('UNSPECIFIED'), ('UNSPECIFIED') ) ;
#39 = DATE_AND_TIME ( #109, #105 ) ;
#40 = VERTEX_POINT ( 'NONE', #57 ) ;
#41 = APPROVAL_DATE_TIME ( #134, #50 ) ;
#42 = LINE ( 'NONE', #88, #126 ) ;
#43 = APPROVAL_ROLE ( '' ) ;
#44 = AXIS2_PLACEMENT_3D ( 'NONE', #49, #100, #24 ) ;
#45 = PERSON_AND_ORGANIZATION ( #38, #158 ) ;
#46 = ORIENTED_EDGE ( 'NONE', *, *, #70, .T. ) ;
#47 = PERSON_AND_ORGANIZATION ( #38, #158 ) ;
#48 = CARTESIAN_POINT ( 'NONE',  ( -12.50000000000000000, 0.0000000000000000000, -0.5500000000000000400 ) ) ;
#49 = CARTESIAN_POINT ( 'NONE',  ( 0.0000000000000000000, 0.0000000000000000000, -0.5500000000000000400 ) ) ;
#50 = APPROVAL ( #139, 'UNSPECIFIED' ) ;
#51 = EDGE_CURVE ( 'NONE', #62, #4, #12, .T. ) ;
#52 = ADVANCED_BREP_SHAPE_REPRESENTATION ( '34526_Default', ( #98, #86 ), #155 ) ;
#53 = SECURITY_CLASSIFICATION_LEVEL ( 'unclassified' ) ;
#54 = APPROVAL_ROLE ( '' ) ;
#55 = CC_DESIGN_PERSON_AND_ORGANIZATION_ASSIGNMENT ( #63, #106, ( #20 ) ) ;
#56 =( LENGTH_UNIT ( ) NAMED_UNIT ( * ) SI_UNIT ( .MILLI., .METRE. ) );
#57 = CARTESIAN_POINT ( 'NONE',  ( 12.50000000000000000, 1.530808498934191500E-015, 0.5500000000000000400 ) ) ;
#58 = AXIS2_PLACEMENT_3D ( 'NONE', #8, #19, #119 ) ;
#59 = COORDINATED_UNIVERSAL_TIME_OFFSET ( 5, 0, .BEHIND. ) ;
#60 = EDGE_LOOP ( 'NONE', ( #125, #84 ) ) ;
#61 = DIRECTION ( 'NONE',  ( -1.000000000000000000, 0.0000000000000000000, 0.0000000000000000000 ) ) ;
#62 = VERTEX_POINT ( 'NONE', #22 ) ;
#63 = PERSON_AND_ORGANIZATION ( #38, #158 ) ;
#64 = CARTESIAN_POINT ( 'NONE',  ( 0.0000000000000000000, 0.0000000000000000000, 0.5500000000000000400 ) ) ;
#65 = SECURITY_CLASSIFICATION ( '', '', #53 ) ;
#66 = PRODUCT_DEFINITION_FORMATION_WITH_SPECIFIED_SOURCE ( 'ANY', '', #20, .NOT_KNOWN. ) ;
#67 = CARTESIAN_POINT ( 'NONE',  ( 0.0000000000000000000, 0.0000000000000000000, 0.5500000000000000400 ) ) ;
#68 = CC_DESIGN_APPROVAL ( #32, ( #138 ) ) ;
#69 = DIRECTION ( 'NONE',  ( 0.0000000000000000000, 0.0000000000000000000, 1.000000000000000000 ) ) ;
#70 = EDGE_CURVE ( 'NONE', #114, #4, #33, .T. ) ;
#71 = ORIENTED_EDGE ( 'NONE', *, *, #27, .T. ) ;
#72 = FACE_OUTER_BOUND ( 'NONE', #77, .T. ) ;
#73 = FACE_OUTER_BOUND ( 'NONE', #60, .T. ) ;
#74 = DIRECTION ( 'NONE',  ( 0.0000000000000000000, 0.0000000000000000000, 1.000000000000000000 ) ) ;
#75 = AXIS2_PLACEMENT_3D ( 'NONE', #64, #69, #132 ) ;
#76 = DIRECTION ( 'NONE',  ( -1.000000000000000000, 0.0000000000000000000, 0.0000000000000000000 ) ) ;
#77 = EDGE_LOOP ( 'NONE', ( #120, #5 ) ) ;
#78 = COORDINATED_UNIVERSAL_TIME_OFFSET ( 5, 0, .BEHIND. ) ;
#79 = APPROVAL_STATUS ( 'not_yet_approved' ) ;
#80 = PERSON_AND_ORGANIZATION_ROLE ( 'classification_officer' ) ;
#81 = CALENDAR_DATE ( 2017, 22, 6 ) ;
#82 = DATE_AND_TIME ( #173, #124 ) ;
#83 = PERSON_AND_ORGANIZATION_ROLE ( 'creator' ) ;
#84 = ORIENTED_EDGE ( 'NONE', *, *, #140, .T. ) ;
#85 =( NAMED_UNIT ( * ) PLANE_ANGLE_UNIT ( ) SI_UNIT ( $, .RADIAN. ) );
#86 = AXIS2_PLACEMENT_3D ( 'NONE', #161, #91, #174 ) ;
#87 = DIRECTION ( 'NONE',  ( -0.0000000000000000000, -0.0000000000000000000, -1.000000000000000000 ) ) ;
#88 = CARTESIAN_POINT ( 'NONE',  ( 12.50000000000000000, 1.530808498934191500E-015, 0.5500000000000000400 ) ) ;
#89 = FACE_OUTER_BOUND ( 'NONE', #136, .T. ) ;
#90 = CC_DESIGN_PERSON_AND_ORGANIZATION_ASSIGNMENT ( #122, #80, ( #65 ) ) ;
#91 = DIRECTION ( 'NONE',  ( 0.0000000000000000000, 0.0000000000000000000, 1.000000000000000000 ) ) ;
#92 = APPROVAL_PERSON_ORGANIZATION ( #47, #50, #142 ) ;
#93 = ORIENTED_EDGE ( 'NONE', *, *, #27, .F. ) ;
#94 = ORIENTED_EDGE ( 'NONE', *, *, #172, .T. ) ;
#95 = ORIENTED_EDGE ( 'NONE', *, *, #51, .F. ) ;
#96 = MECHANICAL_CONTEXT ( 'NONE', #170, 'mechanical' ) ;
#97 = EDGE_CURVE ( 'NONE', #62, #40, #117, .T. ) ;
#98 = MANIFOLD_SOLID_BREP ( 'Boss-Extrude1', #36 ) ;
#99 = AXIS2_PLACEMENT_3D ( 'NONE', #17, #10, #61 ) ;
#100 = DIRECTION ( 'NONE',  ( 0.0000000000000000000, 0.0000000000000000000, 1.000000000000000000 ) ) ;
#101 = AXIS2_PLACEMENT_3D ( 'NONE', #31, #156, #171 ) ;
#102 = DATE_TIME_ROLE ( 'classification_date' ) ;
#103 = ADVANCED_FACE ( 'NONE', ( #89 ), #21, .T. ) ;
#104 = COORDINATED_UNIVERSAL_TIME_OFFSET ( 5, 0, .BEHIND. ) ;
#105 = LOCAL_TIME ( 11, 2, 17.00000000000000000, #78 ) ;
#106 = PERSON_AND_ORGANIZATION_ROLE ( 'design_owner' ) ;
#107 = LOCAL_TIME ( 11, 2, 17.00000000000000000, #7 ) ;
#108 = ORIENTED_EDGE ( 'NONE', *, *, #97, .F. ) ;
#109 = CALENDAR_DATE ( 2017, 22, 6 ) ;
#110 = LOCAL_TIME ( 11, 2, 17.00000000000000000, #128 ) ;
#111 = CC_DESIGN_DATE_AND_TIME_ASSIGNMENT ( #39, #102, ( #65 ) ) ;
#112 = APPROVAL_PERSON_ORGANIZATION ( #164, #32, #43 ) ;
#113 = AXIS2_PLACEMENT_3D ( 'NONE', #175, #74, #159 ) ;
#114 = VERTEX_POINT ( 'NONE', #133 ) ;
#115 = ADVANCED_FACE ( 'NONE', ( #9 ), #28, .T. ) ;
#116 = PERSON_AND_ORGANIZATION ( #38, #158 ) ;
#117 = CIRCLE ( 'NONE', #75, 12.50000000000000000 ) ;
#118 = CARTESIAN_POINT ( 'NONE',  ( 0.0000000000000000000, 0.0000000000000000000, 0.5500000000000000400 ) ) ;
#119 = DIRECTION ( 'NONE',  ( 1.000000000000000000, 0.0000000000000000000, 0.0000000000000000000 ) ) ;
#120 = ORIENTED_EDGE ( 'NONE', *, *, #172, .F. ) ;
#121 = ORIENTED_EDGE ( 'NONE', *, *, #51, .T. ) ;
#122 = PERSON_AND_ORGANIZATION ( #38, #158 ) ;
#123 = ORIENTED_EDGE ( 'NONE', *, *, #140, .F. ) ;
#124 = LOCAL_TIME ( 11, 2, 17.00000000000000000, #104 ) ;
#125 = ORIENTED_EDGE ( 'NONE', *, *, #97, .T. ) ;
#126 = VECTOR ( 'NONE', #127, 1000.000000000000000 ) ;
#127 = DIRECTION ( 'NONE',  ( -0.0000000000000000000, -0.0000000000000000000, -1.000000000000000000 ) ) ;
#128 = COORDINATED_UNIVERSAL_TIME_OFFSET ( 5, 0, .BEHIND. ) ;
#129 = ADVANCED_FACE ( 'NONE', ( #73 ), #168, .T. ) ;
#130 = DATE_AND_TIME ( #135, #13 ) ;
#131 = APPROVAL_PERSON_ORGANIZATION ( #45, #18, #54 ) ;
#132 = DIRECTION ( 'NONE',  ( 1.000000000000000000, 0.0000000000000000000, 0.0000000000000000000 ) ) ;
#133 = CARTESIAN_POINT ( 'NONE',  ( 12.50000000000000000, 1.530808498934191500E-015, -0.5500000000000000400 ) ) ;
#134 = DATE_AND_TIME ( #81, #107 ) ;
#135 = CALENDAR_DATE ( 2017, 22, 6 ) ;
#136 = EDGE_LOOP ( 'NONE', ( #93, #108, #121, #94 ) ) ;
#137 = APPROVAL_DATE_TIME ( #147, #32 ) ;
#138 = PRODUCT_DEFINITION ( 'UNKNOWN', '', #66, #35 ) ;
#139 = APPROVAL_STATUS ( 'not_yet_approved' ) ;
#140 = EDGE_CURVE ( 'NONE', #40, #62, #145, .T. ) ;
#141 = CALENDAR_DATE ( 2017, 22, 6 ) ;
#142 = APPROVAL_ROLE ( '' ) ;
#143 = DATE_TIME_ROLE ( 'creation_date' ) ;
#144 = VECTOR ( 'NONE', #87, 1000.000000000000000 ) ;
#145 = CIRCLE ( 'NONE', #101, 12.50000000000000000 ) ;
#146 =( NAMED_UNIT ( * ) SI_UNIT ( $, .STERADIAN. ) SOLID_ANGLE_UNIT ( ) );
#147 = DATE_AND_TIME ( #141, #110 ) ;
#148 = APPROVAL_DATE_TIME ( #130, #18 ) ;
#149 = APPLICATION_PROTOCOL_DEFINITION ( 'international standard', 'config_control_design', 1994, #16 ) ;
#150 = CC_DESIGN_PERSON_AND_ORGANIZATION_ASSIGNMENT ( #11, #167, ( #138 ) ) ;
#151 = DIRECTION ( 'NONE',  ( -0.0000000000000000000, -0.0000000000000000000, -1.000000000000000000 ) ) ;
#152 = PLANE ( 'NONE',  #44 ) ;
#153 = SHAPE_DEFINITION_REPRESENTATION ( #163, #52 ) ;
#154 = PRODUCT_RELATED_PRODUCT_CATEGORY ( 'detail', '', ( #20 ) ) ;
#155 =( GEOMETRIC_REPRESENTATION_CONTEXT ( 3 ) GLOBAL_UNCERTAINTY_ASSIGNED_CONTEXT ( ( #30 ) ) GLOBAL_UNIT_ASSIGNED_CONTEXT ( ( #56, #85, #146 ) ) REPRESENTATION_CONTEXT ( 'NONE', 'WORKASPACE' ) );
#156 = DIRECTION ( 'NONE',  ( 0.0000000000000000000, 0.0000000000000000000, 1.000000000000000000 ) ) ;
#157 = APPLICATION_PROTOCOL_DEFINITION ( 'international standard', 'config_control_design', 1994, #170 ) ;
#158 = ORGANIZATION ( 'UNSPECIFIED', 'UNSPECIFIED', '' ) ;
#159 = DIRECTION ( 'NONE',  ( 1.000000000000000000, 0.0000000000000000000, 0.0000000000000000000 ) ) ;
#160 = CC_DESIGN_PERSON_AND_ORGANIZATION_ASSIGNMENT ( #14, #83, ( #66 ) ) ;
#161 = CARTESIAN_POINT ( 'NONE',  ( 0.0000000000000000000, 0.0000000000000000000, 0.0000000000000000000 ) ) ;
#162 = AXIS2_PLACEMENT_3D ( 'NONE', #118, #151, #76 ) ;
#163 = PRODUCT_DEFINITION_SHAPE ( 'NONE', 'NONE',  #138 ) ;
#164 = PERSON_AND_ORGANIZATION ( #38, #158 ) ;
#165 = DIRECTION ( 'NONE',  ( 1.000000000000000000, 0.0000000000000000000, -0.0000000000000000000 ) ) ;
#166 = APPROVAL_STATUS ( 'not_yet_approved' ) ;
#167 = PERSON_AND_ORGANIZATION_ROLE ( 'creator' ) ;
#168 = PLANE ( 'NONE',  #2 ) ;
#169 = CC_DESIGN_DATE_AND_TIME_ASSIGNMENT ( #82, #143, ( #138 ) ) ;
#170 = APPLICATION_CONTEXT ( 'configuration controlled 3d designs of mechanical parts and assemblies' ) ;
#171 = DIRECTION ( 'NONE',  ( 1.000000000000000000, 0.0000000000000000000, 0.0000000000000000000 ) ) ;
#172 = EDGE_CURVE ( 'NONE', #4, #114, #1, .T. ) ;
#173 = CALENDAR_DATE ( 2017, 22, 6 ) ;
#174 = DIRECTION ( 'NONE',  ( 1.000000000000000000, 0.0000000000000000000, 0.0000000000000000000 ) ) ;
#175 = CARTESIAN_POINT ( 'NONE',  ( 0.0000000000000000000, 0.0000000000000000000, -0.5500000000000000400 ) ) ;
ENDSEC;
END-ISO-10303-21;
