ISO-10303-21;
HEADER;
FILE_DESCRIPTION (( 'STEP AP203' ),
    '1' );
FILE_NAME ('Web Model 83345.STEP',
    '2017-02-01T15:18:22',
    ( '' ),
    ( '' ),
    'SwSTEP 2.0',
    'SolidWorks 2016',
    '' );
FILE_SCHEMA (( 'CONFIG_CONTROL_DESIGN' ));
ENDSEC;

DATA;
#1 = PERSON_AND_ORGANIZATION ( #85, #108 ) ;
#2 = DIRECTION ( 'NONE',  ( 0.0000000000000000000, 0.0000000000000000000, 1.000000000000000000 ) ) ;
#3 =( GEOMETRIC_REPRESENTATION_CONTEXT ( 3 ) GLOBAL_UNCERTAINTY_ASSIGNED_CONTEXT ( ( #71 ) ) GLOBAL_UNIT_ASSIGNED_CONTEXT ( ( #148, #64, #55 ) ) REPRESENTATION_CONTEXT ( 'NONE', 'WORKASPACE' ) );
#4 = CARTESIAN_POINT ( 'NONE',  ( 0.0000000000000000000, 0.0000000000000000000, 0.0000000000000000000 ) ) ;
#5 = APPROVAL_STATUS ( 'not_yet_approved' ) ;
#6 = PERSON_AND_ORGANIZATION_ROLE ( 'creator' ) ;
#7 = PRODUCT_DEFINITION_FORMATION_WITH_SPECIFIED_SOURCE ( 'ANY', '', #31, .NOT_KNOWN. ) ;
#8 = ORIENTED_EDGE ( 'NONE', *, *, #112, .F. ) ;
#9 = APPROVAL_PERSON_ORGANIZATION ( #114, #161, #34 ) ;
#10 = ORIENTED_EDGE ( 'NONE', *, *, #91, .F. ) ;
#11 = VERTEX_POINT ( 'NONE', #53 ) ;
#12 = DIRECTION ( 'NONE',  ( -1.000000000000000000, -0.0000000000000000000, -0.0000000000000000000 ) ) ;
#13 = LINE ( 'NONE', #136, #154 ) ;
#14 = DIRECTION ( 'NONE',  ( 0.0000000000000000000, 0.0000000000000000000, -1.000000000000000000 ) ) ;
#15 = DIRECTION ( 'NONE',  ( -1.000000000000000000, -0.0000000000000000000, -0.0000000000000000000 ) ) ;
#16 = DIRECTION ( 'NONE',  ( 1.000000000000000000, 0.0000000000000000000, 0.0000000000000000000 ) ) ;
#17 = PERSON_AND_ORGANIZATION ( #85, #108 ) ;
#18 = PERSON_AND_ORGANIZATION_ROLE ( 'classification_officer' ) ;
#19 = SECURITY_CLASSIFICATION_LEVEL ( 'unclassified' ) ;
#20 = ADVANCED_FACE ( 'NONE', ( #40 ), #119, .T. ) ;
#21 = DATE_AND_TIME ( #113, #89 ) ;
#22 = LOCAL_TIME ( 10, 18, 22.00000000000000000, #30 ) ;
#23 = CALENDAR_DATE ( 2017, 1, 2 ) ;
#24 = AXIS2_PLACEMENT_3D ( 'NONE', #60, #43, #42 ) ;
#25 = ORIENTED_EDGE ( 'NONE', *, *, #33, .F. ) ;
#26 = ORIENTED_EDGE ( 'NONE', *, *, #93, .T. ) ;
#27 = DIRECTION ( 'NONE',  ( 1.000000000000000000, 0.0000000000000000000, 0.0000000000000000000 ) ) ;
#28 = CARTESIAN_POINT ( 'NONE',  ( 1.000000000000000000, 3.061616997868383000E-015, -25.00000000000000000 ) ) ;
#29 = DIRECTION ( 'NONE',  ( -1.000000000000000000, -0.0000000000000000000, -0.0000000000000000000 ) ) ;
#30 = COORDINATED_UNIVERSAL_TIME_OFFSET ( 5, 0, .BEHIND. ) ;
#31 = PRODUCT ( 'Web Model 83345', 'Web Model 83345', '', ( #169 ) ) ;
#32 = DIRECTION ( 'NONE',  ( 1.000000000000000000, 0.0000000000000000000, 0.0000000000000000000 ) ) ;
#33 = EDGE_CURVE ( 'NONE', #11, #79, #67, .T. ) ;
#34 = APPROVAL_ROLE ( '' ) ;
#35 = ORIENTED_EDGE ( 'NONE', *, *, #78, .F. ) ;
#36 = APPROVAL_DATE_TIME ( #140, #98 ) ;
#37 = PRODUCT_DEFINITION ( 'UNKNOWN', '', #7, #75 ) ;
#38 = CC_DESIGN_APPROVAL ( #161, ( #105 ) ) ;
#39 = CIRCLE ( 'NONE', #117, 25.00000000000000000 ) ;
#40 = FACE_OUTER_BOUND ( 'NONE', #83, .T. ) ;
#41 = PLANE ( 'NONE',  #128 ) ;
#42 = DIRECTION ( 'NONE',  ( 0.0000000000000000000, 0.0000000000000000000, -1.000000000000000000 ) ) ;
#43 = DIRECTION ( 'NONE',  ( 1.000000000000000000, 0.0000000000000000000, 0.0000000000000000000 ) ) ;
#44 = CARTESIAN_POINT ( 'NONE',  ( 1.000000000000000000, 0.0000000000000000000, 0.0000000000000000000 ) ) ;
#45 = ORIENTED_EDGE ( 'NONE', *, *, #33, .T. ) ;
#46 = DATE_TIME_ROLE ( 'classification_date' ) ;
#47 = CC_DESIGN_DATE_AND_TIME_ASSIGNMENT ( #101, #166, ( #37 ) ) ;
#48 = ORIENTED_EDGE ( 'NONE', *, *, #112, .T. ) ;
#49 = COORDINATED_UNIVERSAL_TIME_OFFSET ( 5, 0, .BEHIND. ) ;
#50 = LOCAL_TIME ( 10, 18, 22.00000000000000000, #141 ) ;
#51 = FACE_OUTER_BOUND ( 'NONE', #99, .T. ) ;
#52 = DIRECTION ( 'NONE',  ( 1.000000000000000000, 0.0000000000000000000, 0.0000000000000000000 ) ) ;
#53 = CARTESIAN_POINT ( 'NONE',  ( 0.0000000000000000000, 0.0000000000000000000, 25.00000000000000000 ) ) ;
#54 = DIRECTION ( 'NONE',  ( 1.000000000000000000, 0.0000000000000000000, 0.0000000000000000000 ) ) ;
#55 =( NAMED_UNIT ( * ) SI_UNIT ( $, .STERADIAN. ) SOLID_ANGLE_UNIT ( ) );
#56 = PERSON_AND_ORGANIZATION ( #85, #108 ) ;
#57 = CC_DESIGN_PERSON_AND_ORGANIZATION_ASSIGNMENT ( #56, #65, ( #37 ) ) ;
#58 = DATE_AND_TIME ( #23, #63 ) ;
#59 = PERSON_AND_ORGANIZATION ( #85, #108 ) ;
#60 = CARTESIAN_POINT ( 'NONE',  ( 0.0000000000000000000, 0.0000000000000000000, 0.0000000000000000000 ) ) ;
#61 = DIRECTION ( 'NONE',  ( 0.0000000000000000000, 0.0000000000000000000, -1.000000000000000000 ) ) ;
#62 = CARTESIAN_POINT ( 'NONE',  ( 1.000000000000000000, 0.0000000000000000000, 0.0000000000000000000 ) ) ;
#63 = LOCAL_TIME ( 10, 18, 22.00000000000000000, #157 ) ;
#64 =( NAMED_UNIT ( * ) PLANE_ANGLE_UNIT ( ) SI_UNIT ( $, .RADIAN. ) );
#65 = PERSON_AND_ORGANIZATION_ROLE ( 'creator' ) ;
#66 = ADVANCED_FACE ( 'NONE', ( #104 ), #41, .T. ) ;
#67 = CIRCLE ( 'NONE', #125, 25.00000000000000000 ) ;
#68 = APPROVAL_ROLE ( '' ) ;
#69 = VERTEX_POINT ( 'NONE', #106 ) ;
#70 = PERSON_AND_ORGANIZATION ( #85, #108 ) ;
#71 = UNCERTAINTY_MEASURE_WITH_UNIT (LENGTH_MEASURE( 1.000000000000000100E-005 ), #148, 'distance_accuracy_value', 'NONE');
#72 = AXIS2_PLACEMENT_3D ( 'NONE', #62, #12, #165 ) ;
#73 = VECTOR ( 'NONE', #29, 1000.000000000000000 ) ;
#74 = PRODUCT_RELATED_PRODUCT_CATEGORY ( 'detail', '', ( #31 ) ) ;
#75 = DESIGN_CONTEXT ( 'detailed design', #100, 'design' ) ;
#76 = DATE_AND_TIME ( #145, #50 ) ;
#77 = CC_DESIGN_PERSON_AND_ORGANIZATION_ASSIGNMENT ( #70, #111, ( #31 ) ) ;
#78 = EDGE_CURVE ( 'NONE', #69, #129, #39, .T. ) ;
#79 = VERTEX_POINT ( 'NONE', #162 ) ;
#80 = CLOSED_SHELL ( 'NONE', ( #20, #152, #66, #123 ) ) ;
#81 = DIRECTION ( 'NONE',  ( 0.0000000000000000000, 0.0000000000000000000, 1.000000000000000000 ) ) ;
#82 = CALENDAR_DATE ( 2017, 1, 2 ) ;
#83 = EDGE_LOOP ( 'NONE', ( #35, #90, #107, #139 ) ) ;
#84 = APPROVAL_DATE_TIME ( #21, #132 ) ;
#85 = PERSON ( 'UNSPECIFIED', 'UNSPECIFIED', 'UNSPECIFIED', ('UNSPECIFIED'), ('UNSPECIFIED'), ('UNSPECIFIED') ) ;
#86 = APPROVAL_STATUS ( 'not_yet_approved' ) ;
#87 = CIRCLE ( 'NONE', #146, 25.00000000000000000 ) ;
#88 = PERSON_AND_ORGANIZATION ( #85, #108 ) ;
#89 = LOCAL_TIME ( 10, 18, 22.00000000000000000, #92 ) ;
#90 = ORIENTED_EDGE ( 'NONE', *, *, #131, .T. ) ;
#91 = EDGE_CURVE ( 'NONE', #79, #11, #87, .T. ) ;
#92 = COORDINATED_UNIVERSAL_TIME_OFFSET ( 5, 0, .BEHIND. ) ;
#93 = EDGE_CURVE ( 'NONE', #129, #11, #13, .T. ) ;
#94 = CARTESIAN_POINT ( 'NONE',  ( 0.0000000000000000000, 0.0000000000000000000, 0.0000000000000000000 ) ) ;
#95 = CARTESIAN_POINT ( 'NONE',  ( 1.000000000000000000, 0.0000000000000000000, 0.0000000000000000000 ) ) ;
#96 = ADVANCED_BREP_SHAPE_REPRESENTATION ( 'Web Model 83345', ( #103, #102 ), #3 ) ;
#97 = PERSON_AND_ORGANIZATION_ROLE ( 'design_supplier' ) ;
#98 = APPROVAL ( #151, 'UNSPECIFIED' ) ;
#99 = EDGE_LOOP ( 'NONE', ( #25, #10 ) ) ;
#100 = APPLICATION_CONTEXT ( 'configuration controlled 3d designs of mechanical parts and assemblies' ) ;
#101 = DATE_AND_TIME ( #164, #159 ) ;
#102 = AXIS2_PLACEMENT_3D ( 'NONE', #163, #81, #110 ) ;
#103 = MANIFOLD_SOLID_BREP ( 'Extrude1', #80 ) ;
#104 = FACE_OUTER_BOUND ( 'NONE', #153, .T. ) ;
#105 = SECURITY_CLASSIFICATION ( '', '', #19 ) ;
#106 = CARTESIAN_POINT ( 'NONE',  ( 1.000000000000000000, 3.061616997868383000E-015, -25.00000000000000000 ) ) ;
#107 = ORIENTED_EDGE ( 'NONE', *, *, #91, .T. ) ;
#108 = ORGANIZATION ( 'UNSPECIFIED', 'UNSPECIFIED', '' ) ;
#109 = ORIENTED_EDGE ( 'NONE', *, *, #78, .T. ) ;
#110 = DIRECTION ( 'NONE',  ( 1.000000000000000000, 0.0000000000000000000, 0.0000000000000000000 ) ) ;
#111 = PERSON_AND_ORGANIZATION_ROLE ( 'design_owner' ) ;
#112 = EDGE_CURVE ( 'NONE', #129, #69, #116, .T. ) ;
#113 = CALENDAR_DATE ( 2017, 1, 2 ) ;
#114 = PERSON_AND_ORGANIZATION ( #85, #108 ) ;
#115 = CC_DESIGN_DATE_AND_TIME_ASSIGNMENT ( #76, #46, ( #105 ) ) ;
#116 = CIRCLE ( 'NONE', #173, 25.00000000000000000 ) ;
#117 = AXIS2_PLACEMENT_3D ( 'NONE', #134, #32, #14 ) ;
#118 = DIRECTION ( 'NONE',  ( 0.0000000000000000000, 0.0000000000000000000, -1.000000000000000000 ) ) ;
#119 = CYLINDRICAL_SURFACE ( 'NONE', #167, 25.00000000000000000 ) ;
#120 = DIRECTION ( 'NONE',  ( 0.0000000000000000000, 0.0000000000000000000, -1.000000000000000000 ) ) ;
#121 = PERSON_AND_ORGANIZATION ( #85, #108 ) ;
#122 = APPROVAL_ROLE ( '' ) ;
#123 = ADVANCED_FACE ( 'NONE', ( #51 ), #135, .F. ) ;
#124 = APPLICATION_PROTOCOL_DEFINITION ( 'international standard', 'config_control_design', 1994, #100 ) ;
#125 = AXIS2_PLACEMENT_3D ( 'NONE', #4, #27, #118 ) ;
#126 = FACE_OUTER_BOUND ( 'NONE', #144, .T. ) ;
#127 = CC_DESIGN_PERSON_AND_ORGANIZATION_ASSIGNMENT ( #88, #6, ( #7 ) ) ;
#128 = AXIS2_PLACEMENT_3D ( 'NONE', #133, #52, #61 ) ;
#129 = VERTEX_POINT ( 'NONE', #174 ) ;
#130 = LINE ( 'NONE', #28, #73 ) ;
#131 = EDGE_CURVE ( 'NONE', #69, #79, #130, .T. ) ;
#132 = APPROVAL ( #86, 'UNSPECIFIED' ) ;
#133 = CARTESIAN_POINT ( 'NONE',  ( 1.000000000000000000, 0.0000000000000000000, 0.0000000000000000000 ) ) ;
#134 = CARTESIAN_POINT ( 'NONE',  ( 1.000000000000000000, 0.0000000000000000000, 0.0000000000000000000 ) ) ;
#135 = PLANE ( 'NONE',  #24 ) ;
#136 = CARTESIAN_POINT ( 'NONE',  ( 1.000000000000000000, 0.0000000000000000000, 25.00000000000000000 ) ) ;
#137 = CC_DESIGN_PERSON_AND_ORGANIZATION_ASSIGNMENT ( #17, #97, ( #7 ) ) ;
#138 = APPLICATION_CONTEXT ( 'configuration controlled 3d designs of mechanical parts and assemblies' ) ;
#139 = ORIENTED_EDGE ( 'NONE', *, *, #93, .F. ) ;
#140 = DATE_AND_TIME ( #82, #22 ) ;
#141 = COORDINATED_UNIVERSAL_TIME_OFFSET ( 5, 0, .BEHIND. ) ;
#142 = CC_DESIGN_APPROVAL ( #132, ( #7 ) ) ;
#143 = SHAPE_DEFINITION_REPRESENTATION ( #160, #96 ) ;
#144 = EDGE_LOOP ( 'NONE', ( #168, #8, #26, #45 ) ) ;
#145 = CALENDAR_DATE ( 2017, 1, 2 ) ;
#146 = AXIS2_PLACEMENT_3D ( 'NONE', #94, #16, #120 ) ;
#147 = DIRECTION ( 'NONE',  ( 0.0000000000000000000, 0.0000000000000000000, -1.000000000000000000 ) ) ;
#148 =( LENGTH_UNIT ( ) NAMED_UNIT ( * ) SI_UNIT ( .MILLI., .METRE. ) );
#149 = APPROVAL_PERSON_ORGANIZATION ( #121, #132, #68 ) ;
#150 = APPLICATION_PROTOCOL_DEFINITION ( 'international standard', 'config_control_design', 1994, #138 ) ;
#151 = APPROVAL_STATUS ( 'not_yet_approved' ) ;
#152 = ADVANCED_FACE ( 'NONE', ( #126 ), #171, .T. ) ;
#153 = EDGE_LOOP ( 'NONE', ( #48, #109 ) ) ;
#154 = VECTOR ( 'NONE', #15, 1000.000000000000000 ) ;
#155 = APPROVAL_PERSON_ORGANIZATION ( #1, #98, #122 ) ;
#156 = CC_DESIGN_PERSON_AND_ORGANIZATION_ASSIGNMENT ( #59, #18, ( #105 ) ) ;
#157 = COORDINATED_UNIVERSAL_TIME_OFFSET ( 5, 0, .BEHIND. ) ;
#158 = APPROVAL_DATE_TIME ( #58, #161 ) ;
#159 = LOCAL_TIME ( 10, 18, 22.00000000000000000, #49 ) ;
#160 = PRODUCT_DEFINITION_SHAPE ( 'NONE', 'NONE',  #37 ) ;
#161 = APPROVAL ( #5, 'UNSPECIFIED' ) ;
#162 = CARTESIAN_POINT ( 'NONE',  ( 0.0000000000000000000, 3.061616997868383000E-015, -25.00000000000000000 ) ) ;
#163 = CARTESIAN_POINT ( 'NONE',  ( 0.0000000000000000000, 0.0000000000000000000, 0.0000000000000000000 ) ) ;
#164 = CALENDAR_DATE ( 2017, 1, 2 ) ;
#165 = DIRECTION ( 'NONE',  ( 0.0000000000000000000, 0.0000000000000000000, 1.000000000000000000 ) ) ;
#166 = DATE_TIME_ROLE ( 'creation_date' ) ;
#167 = AXIS2_PLACEMENT_3D ( 'NONE', #44, #175, #2 ) ;
#168 = ORIENTED_EDGE ( 'NONE', *, *, #131, .F. ) ;
#169 = MECHANICAL_CONTEXT ( 'NONE', #138, 'mechanical' ) ;
#170 = CC_DESIGN_APPROVAL ( #98, ( #37 ) ) ;
#171 = CYLINDRICAL_SURFACE ( 'NONE', #72, 25.00000000000000000 ) ;
#172 = CC_DESIGN_SECURITY_CLASSIFICATION ( #105, ( #7 ) ) ;
#173 = AXIS2_PLACEMENT_3D ( 'NONE', #95, #54, #147 ) ;
#174 = CARTESIAN_POINT ( 'NONE',  ( 1.000000000000000000, 0.0000000000000000000, 25.00000000000000000 ) ) ;
#175 = DIRECTION ( 'NONE',  ( -1.000000000000000000, -0.0000000000000000000, -0.0000000000000000000 ) ) ;
ENDSEC;
END-ISO-10303-21;
