ISO-10303-21;
HEADER;
FILE_DESCRIPTION (( 'STEP AP203' ),
    '1' );
FILE_NAME ('Web Model 47568_47568.step',
    '2017-04-26T17:11:56',
    ( '' ),
    ( '' ),
    'SwSTEP 2.0',
    'SolidWorks 2016',
    '' );
FILE_SCHEMA (( 'CONFIG_CONTROL_DESIGN' ));
ENDSEC;

DATA;
#1 = LINE ( 'NONE', #294, #22 ) ;
#2 = VECTOR ( 'NONE', #106, 1000.000000000000000 ) ;
#3 = CARTESIAN_POINT ( 'NONE',  ( -17.50000000000000000, -17.50000000000000000, 17.50000000000000000 ) ) ;
#4 = PERSON_AND_ORGANIZATION ( #314, #118 ) ;
#5 = DIRECTION ( 'NONE',  ( 1.000000000000000000, 0.0000000000000000000, 0.0000000000000000000 ) ) ;
#6 = APPROVAL ( #58, 'UNSPECIFIED' ) ;
#7 = VECTOR ( 'NONE', #12, 1000.000000000000000 ) ;
#8 = CC_DESIGN_PERSON_AND_ORGANIZATION_ASSIGNMENT ( #174, #228, ( #73 ) ) ;
#9 = ORIENTED_EDGE ( 'NONE', *, *, #28, .F. ) ;
#10 = VECTOR ( 'NONE', #266, 1000.000000000000000 ) ;
#11 = PLANE ( 'NONE',  #188 ) ;
#12 = DIRECTION ( 'NONE',  ( 0.0000000000000000000, 1.000000000000000000, -0.0000000000000000000 ) ) ;
#13 = VECTOR ( 'NONE', #293, 1000.000000000000000 ) ;
#14 = CARTESIAN_POINT ( 'NONE',  ( 0.0000000000000000000, -17.50000000000000000, 17.50000000000000000 ) ) ;
#15 = CARTESIAN_POINT ( 'NONE',  ( 0.0000000000000000000, 17.50000000000000000, 17.50000000000000000 ) ) ;
#16 = ADVANCED_FACE ( 'NONE', ( #306 ), #68, .F. ) ;
#17 = CC_DESIGN_APPROVAL ( #152, ( #47 ) ) ;
#18 = CALENDAR_DATE ( 2017, 26, 4 ) ;
#19 = LINE ( 'NONE', #14, #282 ) ;
#20 = ORIENTED_EDGE ( 'NONE', *, *, #66, .F. ) ;
#21 = FACE_OUTER_BOUND ( 'NONE', #193, .T. ) ;
#22 = VECTOR ( 'NONE', #136, 1000.000000000000000 ) ;
#23 = CC_DESIGN_PERSON_AND_ORGANIZATION_ASSIGNMENT ( #300, #100, ( #47 ) ) ;
#24 = FACE_OUTER_BOUND ( 'NONE', #273, .T. ) ;
#25 = LINE ( 'NONE', #223, #265 ) ;
#26 = LINE ( 'NONE', #79, #39 ) ;
#27 = EDGE_CURVE ( 'NONE', #186, #144, #192, .T. ) ;
#28 = EDGE_CURVE ( 'NONE', #77, #169, #280, .T. ) ;
#29 = ORIENTED_EDGE ( 'NONE', *, *, #259, .F. ) ;
#30 = VERTEX_POINT ( 'NONE', #146 ) ;
#31 = DIRECTION ( 'NONE',  ( -0.0000000000000000000, -0.0000000000000000000, -1.000000000000000000 ) ) ;
#32 = DESIGN_CONTEXT ( 'detailed design', #141, 'design' ) ;
#33 = DIRECTION ( 'NONE',  ( 0.7071067811865474600, -0.7071067811865474600, 0.0000000000000000000 ) ) ;
#34 = FACE_OUTER_BOUND ( 'NONE', #167, .T. ) ;
#35 = APPROVAL_DATE_TIME ( #241, #6 ) ;
#36 = CC_DESIGN_APPROVAL ( #6, ( #271 ) ) ;
#37 = DATE_TIME_ROLE ( 'creation_date' ) ;
#38 = EDGE_LOOP ( 'NONE', ( #229, #291, #154 ) ) ;
#39 = VECTOR ( 'NONE', #180, 1000.000000000000100 ) ;
#40 = COORDINATED_UNIVERSAL_TIME_OFFSET ( 5, 0, .BEHIND. ) ;
#41 = CARTESIAN_POINT ( 'NONE',  ( 17.50000000000000000, -17.50000000000000000, 17.50000000000000000 ) ) ;
#42 = VERTEX_POINT ( 'NONE', #210 ) ;
#43 = DIRECTION ( 'NONE',  ( 0.0000000000000000000, 0.0000000000000000000, 1.000000000000000000 ) ) ;
#44 = CARTESIAN_POINT ( 'NONE',  ( -0.0000000000000000000, 0.0000000000000000000, -17.50000000000000000 ) ) ;
#45 = MANIFOLD_SOLID_BREP ( 'Boss-Extrude2', #137 ) ;
#46 = ADVANCED_FACE ( 'NONE', ( #21 ), #11, .T. ) ;
#47 = PRODUCT_DEFINITION ( 'UNKNOWN', '', #73, #32 ) ;
#48 = LOCAL_TIME ( 13, 11, 56.00000000000000000, #56 ) ;
#49 = DATE_TIME_ROLE ( 'classification_date' ) ;
#50 = ORIENTED_EDGE ( 'NONE', *, *, #27, .T. ) ;
#51 = LINE ( 'NONE', #218, #10 ) ;
#52 = PLANE ( 'NONE',  #155 ) ;
#53 = PERSON_AND_ORGANIZATION ( #314, #118 ) ;
#54 = APPROVAL_DATE_TIME ( #284, #84 ) ;
#55 = VERTEX_POINT ( 'NONE', #119 ) ;
#56 = COORDINATED_UNIVERSAL_TIME_OFFSET ( 5, 0, .BEHIND. ) ;
#57 = CC_DESIGN_PERSON_AND_ORGANIZATION_ASSIGNMENT ( #53, #281, ( #98 ) ) ;
#58 = APPROVAL_STATUS ( 'not_yet_approved' ) ;
#59 = DIRECTION ( 'NONE',  ( 0.0000000000000000000, 1.000000000000000000, 0.0000000000000000000 ) ) ;
#60 = ORIENTED_EDGE ( 'NONE', *, *, #217, .F. ) ;
#61 = APPLICATION_PROTOCOL_DEFINITION ( 'international standard', 'config_control_design', 1994, #141 ) ;
#62 = ADVANCED_BREP_SHAPE_REPRESENTATION ( 'Web Model 47568_47568', ( #45, #308, #139 ), #162 ) ;
#63 = DIRECTION ( 'NONE',  ( 0.0000000000000000000, -0.0000000000000000000, 1.000000000000000000 ) ) ;
#64 = ORIENTED_EDGE ( 'NONE', *, *, #224, .T. ) ;
#65 = LINE ( 'NONE', #275, #130 ) ;
#66 = EDGE_CURVE ( 'NONE', #144, #268, #25, .T. ) ;
#67 = SHAPE_DEFINITION_REPRESENTATION ( #176, #62 ) ;
#68 = PLANE ( 'NONE',  #219 ) ;
#69 = DIRECTION ( 'NONE',  ( -0.0000000000000000000, -0.0000000000000000000, -1.000000000000000000 ) ) ;
#70 = CC_DESIGN_SECURITY_CLASSIFICATION ( #271, ( #73 ) ) ;
#71 = DIRECTION ( 'NONE',  ( 1.000000000000000000, 0.0000000000000000000, 0.0000000000000000000 ) ) ;
#72 = DIRECTION ( 'NONE',  ( -0.7071067811865474600, 0.7071067811865474600, 0.0000000000000000000 ) ) ;
#73 = PRODUCT_DEFINITION_FORMATION_WITH_SPECIFIED_SOURCE ( 'ANY', '', #98, .NOT_KNOWN. ) ;
#74 = DIRECTION ( 'NONE',  ( 0.0000000000000000000, 1.000000000000000000, -0.0000000000000000000 ) ) ;
#75 = CALENDAR_DATE ( 2017, 26, 4 ) ;
#76 = APPLICATION_PROTOCOL_DEFINITION ( 'international standard', 'config_control_design', 1994, #148 ) ;
#77 = VERTEX_POINT ( 'NONE', #248 ) ;
#78 = EDGE_LOOP ( 'NONE', ( #64, #225, #254, #270 ) ) ;
#79 = CARTESIAN_POINT ( 'NONE',  ( -0.0000000000000000000, 0.0000000000000000000, -17.50000000000000000 ) ) ;
#80 = APPROVAL_ROLE ( '' ) ;
#81 =( NAMED_UNIT ( * ) SI_UNIT ( $, .STERADIAN. ) SOLID_ANGLE_UNIT ( ) );
#82 = LINE ( 'NONE', #108, #2 ) ;
#83 = PLANE ( 'NONE',  #181 ) ;
#84 = APPROVAL ( #251, 'UNSPECIFIED' ) ;
#85 = DIRECTION ( 'NONE',  ( -0.0000000000000000000, -0.0000000000000000000, -1.000000000000000000 ) ) ;
#86 = DIRECTION ( 'NONE',  ( -0.0000000000000000000, 0.0000000000000000000, 1.000000000000000000 ) ) ;
#87 = EDGE_CURVE ( 'NONE', #111, #42, #82, .T. ) ;
#88 = CALENDAR_DATE ( 2017, 26, 4 ) ;
#89 = ORIENTED_EDGE ( 'NONE', *, *, #134, .F. ) ;
#90 = MECHANICAL_CONTEXT ( 'NONE', #148, 'mechanical' ) ;
#91 = ORIENTED_EDGE ( 'NONE', *, *, #123, .F. ) ;
#92 = AXIS2_PLACEMENT_3D ( 'NONE', #175, #194, #236 ) ;
#93 = DIRECTION ( 'NONE',  ( 1.000000000000000000, 0.0000000000000000000, 0.0000000000000000000 ) ) ;
#94 = VECTOR ( 'NONE', #101, 1000.000000000000000 ) ;
#95 = APPROVAL_STATUS ( 'not_yet_approved' ) ;
#96 = LINE ( 'NONE', #235, #13 ) ;
#97 = DIRECTION ( 'NONE',  ( 1.000000000000000000, 0.0000000000000000000, 0.0000000000000000000 ) ) ;
#98 = PRODUCT ( 'Web Model 47568_47568', 'Web Model 47568_47568', '', ( #90 ) ) ;
#99 = EDGE_CURVE ( 'NONE', #261, #77, #312, .T. ) ;
#100 = PERSON_AND_ORGANIZATION_ROLE ( 'creator' ) ;
#101 = DIRECTION ( 'NONE',  ( 0.0000000000000000000, 1.000000000000000000, -0.0000000000000000000 ) ) ;
#102 = VECTOR ( 'NONE', #313, 1000.000000000000000 ) ;
#103 = ORIENTED_EDGE ( 'NONE', *, *, #237, .T. ) ;
#104 = PLANE ( 'NONE',  #286 ) ;
#105 = ADVANCED_FACE ( 'NONE', ( #135 ), #149, .T. ) ;
#106 = DIRECTION ( 'NONE',  ( 0.0000000000000000000, 1.000000000000000000, -0.0000000000000000000 ) ) ;
#107 = LOCAL_TIME ( 13, 11, 56.00000000000000000, #165 ) ;
#108 = CARTESIAN_POINT ( 'NONE',  ( 17.50000000000000000, 0.0000000000000000000, 17.50000000000000000 ) ) ;
#109 = ORIENTED_EDGE ( 'NONE', *, *, #27, .F. ) ;
#110 = LINE ( 'NONE', #41, #321 ) ;
#111 = VERTEX_POINT ( 'NONE', #249 ) ;
#112 = LINE ( 'NONE', #157, #277 ) ;
#113 = DIRECTION ( 'NONE',  ( 1.000000000000000000, 0.0000000000000000000, 0.0000000000000000000 ) ) ;
#114 = CLOSED_SHELL ( 'NONE', ( #178, #128, #319, #46, #158 ) ) ;
#115 = ORIENTED_EDGE ( 'NONE', *, *, #259, .T. ) ;
#116 = DIRECTION ( 'NONE',  ( 0.7071067811865474600, -0.7071067811865474600, 0.0000000000000000000 ) ) ;
#117 = CARTESIAN_POINT ( 'NONE',  ( 0.0000000000000000000, 0.0000000000000000000, 17.50000000000000000 ) ) ;
#118 = ORGANIZATION ( 'UNSPECIFIED', 'UNSPECIFIED', '' ) ;
#119 = CARTESIAN_POINT ( 'NONE',  ( 17.50000000000000000, -17.50000000000000000, -17.50000000000000000 ) ) ;
#120 = LINE ( 'NONE', #44, #220 ) ;
#121 = ORIENTED_EDGE ( 'NONE', *, *, #99, .F. ) ;
#122 = CARTESIAN_POINT ( 'NONE',  ( 0.0000000000000000000, 0.0000000000000000000, -17.50000000000000000 ) ) ;
#123 = EDGE_CURVE ( 'NONE', #261, #30, #276, .T. ) ;
#124 = DIRECTION ( 'NONE',  ( 0.0000000000000000000, 0.0000000000000000000, 1.000000000000000000 ) ) ;
#125 = FACE_OUTER_BOUND ( 'NONE', #250, .T. ) ;
#126 = DIRECTION ( 'NONE',  ( 0.0000000000000000000, 1.000000000000000000, 0.0000000000000000000 ) ) ;
#127 = APPROVAL_PERSON_ORGANIZATION ( #288, #152, #185 ) ;
#128 = ADVANCED_FACE ( 'NONE', ( #170 ), #307, .F. ) ;
#129 = CARTESIAN_POINT ( 'NONE',  ( 0.0000000000000000000, 0.0000000000000000000, -17.50000000000000000 ) ) ;
#130 = VECTOR ( 'NONE', #267, 1000.000000000000100 ) ;
#131 = DIRECTION ( 'NONE',  ( 0.7071067811865475700, 0.7071067811865475700, -0.0000000000000000000 ) ) ;
#132 = PRODUCT_RELATED_PRODUCT_CATEGORY ( 'detail', '', ( #98 ) ) ;
#133 = PERSON_AND_ORGANIZATION ( #314, #118 ) ;
#134 = EDGE_CURVE ( 'NONE', #111, #55, #110, .T. ) ;
#135 = FACE_OUTER_BOUND ( 'NONE', #171, .T. ) ;
#136 = DIRECTION ( 'NONE',  ( -0.0000000000000000000, -0.0000000000000000000, -1.000000000000000000 ) ) ;
#137 = CLOSED_SHELL ( 'NONE', ( #105, #203, #214, #298, #16 ) ) ;
#138 = CARTESIAN_POINT ( 'NONE',  ( 0.0000000000000000000, 0.0000000000000000000, 17.50000000000000000 ) ) ;
#139 = AXIS2_PLACEMENT_3D ( 'NONE', #231, #43, #150 ) ;
#140 =( LENGTH_UNIT ( ) NAMED_UNIT ( * ) SI_UNIT ( .MILLI., .METRE. ) );
#141 = APPLICATION_CONTEXT ( 'configuration controlled 3d designs of mechanical parts and assemblies' ) ;
#142 = AXIS2_PLACEMENT_3D ( 'NONE', #315, #208, #124 ) ;
#143 = CARTESIAN_POINT ( 'NONE',  ( -17.50000000000000000, 17.50000000000000000, 17.50000000000000000 ) ) ;
#144 = VERTEX_POINT ( 'NONE', #311 ) ;
#145 = ORIENTED_EDGE ( 'NONE', *, *, #260, .F. ) ;
#146 = CARTESIAN_POINT ( 'NONE',  ( -17.50000000000000000, -17.50000000000000000, -17.50000000000000000 ) ) ;
#147 = CC_DESIGN_DATE_AND_TIME_ASSIGNMENT ( #191, #37, ( #47 ) ) ;
#148 = APPLICATION_CONTEXT ( 'configuration controlled 3d designs of mechanical parts and assemblies' ) ;
#149 = PLANE ( 'NONE',  #142 ) ;
#150 = DIRECTION ( 'NONE',  ( 1.000000000000000000, 0.0000000000000000000, 0.0000000000000000000 ) ) ;
#151 = ORIENTED_EDGE ( 'NONE', *, *, #244, .F. ) ;
#152 = APPROVAL ( #95, 'UNSPECIFIED' ) ;
#153 = DIRECTION ( 'NONE',  ( 0.0000000000000000000, 0.0000000000000000000, 1.000000000000000000 ) ) ;
#154 = ORIENTED_EDGE ( 'NONE', *, *, #187, .F. ) ;
#155 = AXIS2_PLACEMENT_3D ( 'NONE', #15, #59, #316 ) ;
#156 = ORIENTED_EDGE ( 'NONE', *, *, #217, .T. ) ;
#157 = CARTESIAN_POINT ( 'NONE',  ( 0.0000000000000000000, -17.50000000000000000, -17.50000000000000000 ) ) ;
#158 = ADVANCED_FACE ( 'NONE', ( #24 ), #83, .F. ) ;
#159 = ORIENTED_EDGE ( 'NONE', *, *, #269, .T. ) ;
#160 = ORIENTED_EDGE ( 'NONE', *, *, #66, .T. ) ;
#161 = DIRECTION ( 'NONE',  ( -0.0000000000000000000, 0.0000000000000000000, 1.000000000000000000 ) ) ;
#162 =( GEOMETRIC_REPRESENTATION_CONTEXT ( 3 ) GLOBAL_UNCERTAINTY_ASSIGNED_CONTEXT ( ( #209 ) ) GLOBAL_UNIT_ASSIGNED_CONTEXT ( ( #140, #242, #81 ) ) REPRESENTATION_CONTEXT ( 'NONE', 'WORKASPACE' ) );
#163 = CARTESIAN_POINT ( 'NONE',  ( 17.50000000000000000, -17.50000000000000000, 17.50000000000000000 ) ) ;
#164 = VECTOR ( 'NONE', #85, 1000.000000000000000 ) ;
#165 = COORDINATED_UNIVERSAL_TIME_OFFSET ( 5, 0, .BEHIND. ) ;
#166 = FACE_OUTER_BOUND ( 'NONE', #202, .T. ) ;
#167 = EDGE_LOOP ( 'NONE', ( #121, #256, #9 ) ) ;
#168 = VECTOR ( 'NONE', #74, 1000.000000000000000 ) ;
#169 = VERTEX_POINT ( 'NONE', #163 ) ;
#170 = FACE_OUTER_BOUND ( 'NONE', #78, .T. ) ;
#171 = EDGE_LOOP ( 'NONE', ( #151, #91, #258, #156 ) ) ;
#172 = DIRECTION ( 'NONE',  ( 1.000000000000000000, 0.0000000000000000000, 0.0000000000000000000 ) ) ;
#173 = ORIENTED_EDGE ( 'NONE', *, *, #87, .T. ) ;
#174 = PERSON_AND_ORGANIZATION ( #314, #118 ) ;
#175 = CARTESIAN_POINT ( 'NONE',  ( 0.0000000000000000000, 0.0000000000000000000, 17.50000000000000000 ) ) ;
#176 = PRODUCT_DEFINITION_SHAPE ( 'NONE', 'NONE',  #47 ) ;
#177 = ORIENTED_EDGE ( 'NONE', *, *, #263, .F. ) ;
#178 = ADVANCED_FACE ( 'NONE', ( #166 ), #183, .F. ) ;
#179 = CARTESIAN_POINT ( 'NONE',  ( 0.0000000000000000000, 0.0000000000000000000, 17.50000000000000000 ) ) ;
#180 = DIRECTION ( 'NONE',  ( 0.7071067811865474600, -0.7071067811865474600, 0.0000000000000000000 ) ) ;
#181 = AXIS2_PLACEMENT_3D ( 'NONE', #129, #189, #97 ) ;
#182 = SECURITY_CLASSIFICATION_LEVEL ( 'unclassified' ) ;
#183 = PLANE ( 'NONE',  #257 ) ;
#184 = CC_DESIGN_DATE_AND_TIME_ASSIGNMENT ( #318, #49, ( #271 ) ) ;
#185 = APPROVAL_ROLE ( '' ) ;
#186 = VERTEX_POINT ( 'NONE', #201 ) ;
#187 = EDGE_CURVE ( 'NONE', #30, #195, #112, .T. ) ;
#188 = AXIS2_PLACEMENT_3D ( 'NONE', #138, #296, #93 ) ;
#189 = DIRECTION ( 'NONE',  ( -0.0000000000000000000, 0.0000000000000000000, 1.000000000000000000 ) ) ;
#190 = ORIENTED_EDGE ( 'NONE', *, *, #237, .F. ) ;
#191 = DATE_AND_TIME ( #232, #48 ) ;
#192 = LINE ( 'NONE', #143, #205 ) ;
#193 = EDGE_LOOP ( 'NONE', ( #299, #173, #190 ) ) ;
#194 = DIRECTION ( 'NONE',  ( 0.7071067811865475700, 0.7071067811865475700, -0.0000000000000000000 ) ) ;
#195 = VERTEX_POINT ( 'NONE', #216 ) ;
#196 = VECTOR ( 'NONE', #116, 1000.000000000000100 ) ;
#197 = PERSON_AND_ORGANIZATION_ROLE ( 'classification_officer' ) ;
#198 = PERSON_AND_ORGANIZATION ( #314, #118 ) ;
#199 = AXIS2_PLACEMENT_3D ( 'NONE', #289, #207, #153 ) ;
#200 = LINE ( 'NONE', #287, #102 ) ;
#201 = CARTESIAN_POINT ( 'NONE',  ( -17.50000000000000000, 17.50000000000000000, 17.50000000000000000 ) ) ;
#202 = EDGE_LOOP ( 'NONE', ( #115, #89, #283, #50 ) ) ;
#203 = ADVANCED_FACE ( 'NONE', ( #304 ), #104, .F. ) ;
#204 = DIRECTION ( 'NONE',  ( 1.000000000000000000, 0.0000000000000000000, 0.0000000000000000000 ) ) ;
#205 = VECTOR ( 'NONE', #31, 1000.000000000000000 ) ;
#206 = CC_DESIGN_APPROVAL ( #84, ( #73 ) ) ;
#207 = DIRECTION ( 'NONE',  ( -1.000000000000000000, 0.0000000000000000000, 0.0000000000000000000 ) ) ;
#208 = DIRECTION ( 'NONE',  ( -1.000000000000000000, 0.0000000000000000000, 0.0000000000000000000 ) ) ;
#209 = UNCERTAINTY_MEASURE_WITH_UNIT (LENGTH_MEASURE( 1.000000000000000100E-005 ), #140, 'distance_accuracy_value', 'NONE');
#210 = CARTESIAN_POINT ( 'NONE',  ( 17.50000000000000000, 17.50000000000000000, 17.50000000000000000 ) ) ;
#211 = APPROVAL_PERSON_ORGANIZATION ( #233, #6, #80 ) ;
#212 = CARTESIAN_POINT ( 'NONE',  ( -17.50000000000000000, 0.0000000000000000000, -17.50000000000000000 ) ) ;
#213 = CALENDAR_DATE ( 2017, 26, 4 ) ;
#214 = ADVANCED_FACE ( 'NONE', ( #221 ), #279, .T. ) ;
#215 = ORIENTED_EDGE ( 'NONE', *, *, #224, .F. ) ;
#216 = CARTESIAN_POINT ( 'NONE',  ( 17.50000000000000000, -17.50000000000000000, -17.50000000000000000 ) ) ;
#217 = EDGE_CURVE ( 'NONE', #77, #320, #51, .T. ) ;
#218 = CARTESIAN_POINT ( 'NONE',  ( -17.50000000000000000, 17.50000000000000000, 17.50000000000000000 ) ) ;
#219 = AXIS2_PLACEMENT_3D ( 'NONE', #122, #161, #5 ) ;
#220 = VECTOR ( 'NONE', #33, 1000.000000000000100 ) ;
#221 = FACE_OUTER_BOUND ( 'NONE', #302, .T. ) ;
#222 = LOCAL_TIME ( 13, 11, 56.00000000000000000, #40 ) ;
#223 = CARTESIAN_POINT ( 'NONE',  ( -0.0000000000000000000, 17.50000000000000000, -17.50000000000000000 ) ) ;
#224 = EDGE_CURVE ( 'NONE', #55, #268, #239, .T. ) ;
#225 = ORIENTED_EDGE ( 'NONE', *, *, #269, .F. ) ;
#226 = LINE ( 'NONE', #212, #168 ) ;
#227 = EDGE_CURVE ( 'NONE', #186, #111, #65, .T. ) ;
#228 = PERSON_AND_ORGANIZATION_ROLE ( 'creator' ) ;
#229 = ORIENTED_EDGE ( 'NONE', *, *, #244, .T. ) ;
#230 = LOCAL_TIME ( 13, 11, 56.00000000000000000, #274 ) ;
#231 = CARTESIAN_POINT ( 'NONE',  ( 0.0000000000000000000, 0.0000000000000000000, 0.0000000000000000000 ) ) ;
#232 = CALENDAR_DATE ( 2017, 26, 4 ) ;
#233 = PERSON_AND_ORGANIZATION ( #314, #118 ) ;
#234 = APPROVAL_PERSON_ORGANIZATION ( #4, #84, #245 ) ;
#235 = CARTESIAN_POINT ( 'NONE',  ( 17.50000000000000000, -17.50000000000000000, 17.50000000000000000 ) ) ;
#236 = DIRECTION ( 'NONE',  ( -0.7071067811865474600, 0.7071067811865474600, 0.0000000000000000000 ) ) ;
#237 = EDGE_CURVE ( 'NONE', #186, #42, #200, .T. ) ;
#238 = PERSON_AND_ORGANIZATION_ROLE ( 'design_supplier' ) ;
#239 = LINE ( 'NONE', #278, #94 ) ;
#240 = COORDINATED_UNIVERSAL_TIME_OFFSET ( 5, 0, .BEHIND. ) ;
#241 = DATE_AND_TIME ( #213, #230 ) ;
#242 =( NAMED_UNIT ( * ) PLANE_ANGLE_UNIT ( ) SI_UNIT ( $, .RADIAN. ) );
#243 = CARTESIAN_POINT ( 'NONE',  ( -17.50000000000000000, 0.0000000000000000000, 17.50000000000000000 ) ) ;
#244 = EDGE_CURVE ( 'NONE', #30, #320, #226, .T. ) ;
#245 = APPROVAL_ROLE ( '' ) ;
#246 = DATE_AND_TIME ( #75, #222 ) ;
#247 = AXIS2_PLACEMENT_3D ( 'NONE', #285, #86, #71 ) ;
#248 = CARTESIAN_POINT ( 'NONE',  ( -17.50000000000000000, 17.50000000000000000, 17.50000000000000000 ) ) ;
#249 = CARTESIAN_POINT ( 'NONE',  ( 17.50000000000000000, -17.50000000000000000, 17.50000000000000000 ) ) ;
#250 = EDGE_LOOP ( 'NONE', ( #20, #109, #103, #159 ) ) ;
#251 = APPROVAL_STATUS ( 'not_yet_approved' ) ;
#252 = LOCAL_TIME ( 13, 11, 56.00000000000000000, #240 ) ;
#253 = EDGE_LOOP ( 'NONE', ( #264, #145, #295, #317 ) ) ;
#254 = ORIENTED_EDGE ( 'NONE', *, *, #87, .F. ) ;
#255 = CARTESIAN_POINT ( 'NONE',  ( -17.50000000000000000, 17.50000000000000000, -17.50000000000000000 ) ) ;
#256 = ORIENTED_EDGE ( 'NONE', *, *, #297, .T. ) ;
#257 = AXIS2_PLACEMENT_3D ( 'NONE', #117, #131, #72 ) ;
#258 = ORIENTED_EDGE ( 'NONE', *, *, #99, .T. ) ;
#259 = EDGE_CURVE ( 'NONE', #144, #55, #26, .T. ) ;
#260 = EDGE_CURVE ( 'NONE', #169, #195, #96, .T. ) ;
#261 = VERTEX_POINT ( 'NONE', #290 ) ;
#262 = CARTESIAN_POINT ( 'NONE',  ( 17.50000000000000000, 17.50000000000000000, -17.50000000000000000 ) ) ;
#263 = EDGE_CURVE ( 'NONE', #320, #195, #120, .T. ) ;
#264 = ORIENTED_EDGE ( 'NONE', *, *, #187, .T. ) ;
#265 = VECTOR ( 'NONE', #172, 1000.000000000000000 ) ;
#266 = DIRECTION ( 'NONE',  ( -0.0000000000000000000, -0.0000000000000000000, -1.000000000000000000 ) ) ;
#267 = DIRECTION ( 'NONE',  ( 0.7071067811865474600, -0.7071067811865474600, 0.0000000000000000000 ) ) ;
#268 = VERTEX_POINT ( 'NONE', #262 ) ;
#269 = EDGE_CURVE ( 'NONE', #42, #268, #1, .T. ) ;
#270 = ORIENTED_EDGE ( 'NONE', *, *, #134, .T. ) ;
#271 = SECURITY_CLASSIFICATION ( '', '', #182 ) ;
#272 = ORIENTED_EDGE ( 'NONE', *, *, #28, .T. ) ;
#273 = EDGE_LOOP ( 'NONE', ( #29, #160, #215 ) ) ;
#274 = COORDINATED_UNIVERSAL_TIME_OFFSET ( 5, 0, .BEHIND. ) ;
#275 = CARTESIAN_POINT ( 'NONE',  ( 0.0000000000000000000, 0.0000000000000000000, 17.50000000000000000 ) ) ;
#276 = LINE ( 'NONE', #3, #164 ) ;
#277 = VECTOR ( 'NONE', #113, 1000.000000000000000 ) ;
#278 = CARTESIAN_POINT ( 'NONE',  ( 17.50000000000000000, 0.0000000000000000000, -17.50000000000000000 ) ) ;
#279 = PLANE ( 'NONE',  #92 ) ;
#280 = LINE ( 'NONE', #179, #196 ) ;
#281 = PERSON_AND_ORGANIZATION_ROLE ( 'design_owner' ) ;
#282 = VECTOR ( 'NONE', #204, 1000.000000000000000 ) ;
#283 = ORIENTED_EDGE ( 'NONE', *, *, #227, .F. ) ;
#284 = DATE_AND_TIME ( #88, #252 ) ;
#285 = CARTESIAN_POINT ( 'NONE',  ( 0.0000000000000000000, 0.0000000000000000000, 17.50000000000000000 ) ) ;
#286 = AXIS2_PLACEMENT_3D ( 'NONE', #305, #126, #63 ) ;
#287 = CARTESIAN_POINT ( 'NONE',  ( 0.0000000000000000000, 17.50000000000000000, 17.50000000000000000 ) ) ;
#288 = PERSON_AND_ORGANIZATION ( #314, #118 ) ;
#289 = CARTESIAN_POINT ( 'NONE',  ( 17.50000000000000000, 0.0000000000000000000, 17.50000000000000000 ) ) ;
#290 = CARTESIAN_POINT ( 'NONE',  ( -17.50000000000000000, -17.50000000000000000, 17.50000000000000000 ) ) ;
#291 = ORIENTED_EDGE ( 'NONE', *, *, #263, .T. ) ;
#292 = CC_DESIGN_PERSON_AND_ORGANIZATION_ASSIGNMENT ( #133, #197, ( #271 ) ) ;
#293 = DIRECTION ( 'NONE',  ( -0.0000000000000000000, -0.0000000000000000000, -1.000000000000000000 ) ) ;
#294 = CARTESIAN_POINT ( 'NONE',  ( 17.50000000000000000, 17.50000000000000000, 17.50000000000000000 ) ) ;
#295 = ORIENTED_EDGE ( 'NONE', *, *, #297, .F. ) ;
#296 = DIRECTION ( 'NONE',  ( -0.0000000000000000000, 0.0000000000000000000, 1.000000000000000000 ) ) ;
#297 = EDGE_CURVE ( 'NONE', #261, #169, #19, .T. ) ;
#298 = ADVANCED_FACE ( 'NONE', ( #34 ), #309, .T. ) ;
#299 = ORIENTED_EDGE ( 'NONE', *, *, #227, .T. ) ;
#300 = PERSON_AND_ORGANIZATION ( #314, #118 ) ;
#301 = APPROVAL_DATE_TIME ( #246, #152 ) ;
#302 = EDGE_LOOP ( 'NONE', ( #177, #60, #272, #303 ) ) ;
#303 = ORIENTED_EDGE ( 'NONE', *, *, #260, .T. ) ;
#304 = FACE_OUTER_BOUND ( 'NONE', #253, .T. ) ;
#305 = CARTESIAN_POINT ( 'NONE',  ( 0.0000000000000000000, -17.50000000000000000, 17.50000000000000000 ) ) ;
#306 = FACE_OUTER_BOUND ( 'NONE', #38, .T. ) ;
#307 = PLANE ( 'NONE',  #199 ) ;
#308 = MANIFOLD_SOLID_BREP ( 'Boss-Extrude3', #114 ) ;
#309 = PLANE ( 'NONE',  #247 ) ;
#310 = CC_DESIGN_PERSON_AND_ORGANIZATION_ASSIGNMENT ( #198, #238, ( #73 ) ) ;
#311 = CARTESIAN_POINT ( 'NONE',  ( -17.50000000000000000, 17.50000000000000000, -17.50000000000000000 ) ) ;
#312 = LINE ( 'NONE', #243, #7 ) ;
#313 = DIRECTION ( 'NONE',  ( 1.000000000000000000, 0.0000000000000000000, 0.0000000000000000000 ) ) ;
#314 = PERSON ( 'UNSPECIFIED', 'UNSPECIFIED', 'UNSPECIFIED', ('UNSPECIFIED'), ('UNSPECIFIED'), ('UNSPECIFIED') ) ;
#315 = CARTESIAN_POINT ( 'NONE',  ( -17.50000000000000000, 0.0000000000000000000, 17.50000000000000000 ) ) ;
#316 = DIRECTION ( 'NONE',  ( 0.0000000000000000000, -0.0000000000000000000, 1.000000000000000000 ) ) ;
#317 = ORIENTED_EDGE ( 'NONE', *, *, #123, .T. ) ;
#318 = DATE_AND_TIME ( #18, #107 ) ;
#319 = ADVANCED_FACE ( 'NONE', ( #125 ), #52, .T. ) ;
#320 = VERTEX_POINT ( 'NONE', #255 ) ;
#321 = VECTOR ( 'NONE', #69, 1000.000000000000000 ) ;
ENDSEC;
END-ISO-10303-21;
