ISO-10303-21;
HEADER;
FILE_DESCRIPTION (( 'STEP AP203' ),
    '1' );
FILE_NAME ('Web Model 47047_48578.step',
    '2017-06-06T16:59:51',
    ( '' ),
    ( '' ),
    'SwSTEP 2.0',
    'SolidWorks 2016',
    '' );
FILE_SCHEMA (( 'CONFIG_CONTROL_DESIGN' ));
ENDSEC;

DATA;
#1 = ADVANCED_FACE ( 'NONE', ( #138 ), #143, .F. ) ;
#2 = DIRECTION ( 'NONE',  ( 0.7071067811865474600, -0.7071067811865474600, 0.0000000000000000000 ) ) ;
#3 = UNCERTAINTY_MEASURE_WITH_UNIT (LENGTH_MEASURE( 1.000000000000000100E-005 ), #165, 'distance_accuracy_value', 'NONE');
#4 = LINE ( 'NONE', #191, #42 ) ;
#5 = COORDINATED_UNIVERSAL_TIME_OFFSET ( 5, 0, .BEHIND. ) ;
#6 = PERSON_AND_ORGANIZATION ( #262, #261 ) ;
#7 = MECHANICAL_CONTEXT ( 'NONE', #35, 'mechanical' ) ;
#8 = ORIENTED_EDGE ( 'NONE', *, *, #59, .F. ) ;
#9 = SECURITY_CLASSIFICATION ( '', '', #300 ) ;
#10 = VERTEX_POINT ( 'NONE', #226 ) ;
#11 = CARTESIAN_POINT ( 'NONE',  ( 7.499999999999998200, 7.499999999999999100, -7.500000000000000000 ) ) ;
#12 = PERSON_AND_ORGANIZATION ( #262, #261 ) ;
#13 = DIRECTION ( 'NONE',  ( 1.000000000000000000, 0.0000000000000000000, 0.0000000000000000000 ) ) ;
#14 = LINE ( 'NONE', #158, #308 ) ;
#15 = EDGE_LOOP ( 'NONE', ( #86, #254, #48, #217 ) ) ;
#16 = CARTESIAN_POINT ( 'NONE',  ( 0.0000000000000000000, 0.0000000000000000000, 0.0000000000000000000 ) ) ;
#17 = ADVANCED_FACE ( 'NONE', ( #277 ), #33, .T. ) ;
#18 = FACE_OUTER_BOUND ( 'NONE', #244, .T. ) ;
#19 = ORIENTED_EDGE ( 'NONE', *, *, #113, .T. ) ;
#20 = CARTESIAN_POINT ( 'NONE',  ( -7.500000000000000000, 7.499999999999998200, -7.500000000000000000 ) ) ;
#21 = CC_DESIGN_PERSON_AND_ORGANIZATION_ASSIGNMENT ( #57, #321, ( #9 ) ) ;
#22 = DIRECTION ( 'NONE',  ( -0.0000000000000000000, -0.0000000000000000000, -1.000000000000000000 ) ) ;
#23 = DESIGN_CONTEXT ( 'detailed design', #87, 'design' ) ;
#24 = VERTEX_POINT ( 'NONE', #63 ) ;
#25 = AXIS2_PLACEMENT_3D ( 'NONE', #207, #312, #183 ) ;
#26 =( NAMED_UNIT ( * ) SI_UNIT ( $, .STERADIAN. ) SOLID_ANGLE_UNIT ( ) );
#27 = PLANE ( 'NONE',  #195 ) ;
#28 = LINE ( 'NONE', #69, #233 ) ;
#29 = LINE ( 'NONE', #278, #31 ) ;
#30 = EDGE_LOOP ( 'NONE', ( #176, #142, #279, #313 ) ) ;
#31 = VECTOR ( 'NONE', #126, 1000.000000000000000 ) ;
#32 = VECTOR ( 'NONE', #37, 1000.000000000000100 ) ;
#33 = PLANE ( 'NONE',  #320 ) ;
#34 = VERTEX_POINT ( 'NONE', #20 ) ;
#35 = APPLICATION_CONTEXT ( 'configuration controlled 3d designs of mechanical parts and assemblies' ) ;
#36 = CARTESIAN_POINT ( 'NONE',  ( -7.500000000000000000, 0.0000000000000000000, 7.500000000000000000 ) ) ;
#37 = DIRECTION ( 'NONE',  ( 0.7071067811865474600, -0.7071067811865474600, 0.0000000000000000000 ) ) ;
#38 = CALENDAR_DATE ( 2017, 6, 6 ) ;
#39 = LINE ( 'NONE', #222, #292 ) ;
#40 = CC_DESIGN_DATE_AND_TIME_ASSIGNMENT ( #283, #50, ( #9 ) ) ;
#41 = CARTESIAN_POINT ( 'NONE',  ( -0.0000000000000000000, 7.499999999999999100, -7.500000000000000000 ) ) ;
#42 = VECTOR ( 'NONE', #284, 1000.000000000000000 ) ;
#43 = ADVANCED_FACE ( 'NONE', ( #257 ), #275, .T. ) ;
#44 = DIRECTION ( 'NONE',  ( -0.7071067811865474600, 0.7071067811865474600, 0.0000000000000000000 ) ) ;
#45 = PERSON_AND_ORGANIZATION ( #262, #261 ) ;
#46 = DIRECTION ( 'NONE',  ( -0.7071067811865474600, 0.7071067811865474600, 0.0000000000000000000 ) ) ;
#47 = EDGE_CURVE ( 'NONE', #144, #229, #66, .T. ) ;
#48 = ORIENTED_EDGE ( 'NONE', *, *, #179, .T. ) ;
#49 = DATE_AND_TIME ( #125, #216 ) ;
#50 = DATE_TIME_ROLE ( 'classification_date' ) ;
#51 = AXIS2_PLACEMENT_3D ( 'NONE', #293, #153, #294 ) ;
#52 = DIRECTION ( 'NONE',  ( -0.0000000000000000000, 0.0000000000000000000, 1.000000000000000000 ) ) ;
#53 = APPLICATION_PROTOCOL_DEFINITION ( 'international standard', 'config_control_design', 1994, #35 ) ;
#54 = APPROVAL ( #147, 'UNSPECIFIED' ) ;
#55 = DIRECTION ( 'NONE',  ( 0.7071067811865475700, 0.7071067811865475700, -0.0000000000000000000 ) ) ;
#56 = AXIS2_PLACEMENT_3D ( 'NONE', #319, #253, #289 ) ;
#57 = PERSON_AND_ORGANIZATION ( #262, #261 ) ;
#58 = CARTESIAN_POINT ( 'NONE',  ( 7.499999999999998200, 7.499999999999999100, 7.500000000000000000 ) ) ;
#59 = EDGE_CURVE ( 'NONE', #168, #245, #210, .T. ) ;
#60 = ADVANCED_FACE ( 'NONE', ( #227 ), #267, .F. ) ;
#61 = COORDINATED_UNIVERSAL_TIME_OFFSET ( 5, 0, .BEHIND. ) ;
#62 = APPROVAL_DATE_TIME ( #164, #54 ) ;
#63 = CARTESIAN_POINT ( 'NONE',  ( 7.499999999999998200, -7.500000000000000000, -7.500000000000000000 ) ) ;
#64 = CARTESIAN_POINT ( 'NONE',  ( 7.499999999999998200, 7.499999999999999100, 7.500000000000000000 ) ) ;
#65 = CARTESIAN_POINT ( 'NONE',  ( 7.499999999999998200, 0.0000000000000000000, 7.500000000000000000 ) ) ;
#66 = LINE ( 'NONE', #58, #242 ) ;
#67 = ORIENTED_EDGE ( 'NONE', *, *, #47, .F. ) ;
#68 = ORIENTED_EDGE ( 'NONE', *, *, #97, .T. ) ;
#69 = CARTESIAN_POINT ( 'NONE',  ( -7.500000000000000000, 0.0000000000000000000, -7.500000000000000000 ) ) ;
#70 = PERSON_AND_ORGANIZATION ( #262, #261 ) ;
#71 = ORIENTED_EDGE ( 'NONE', *, *, #282, .T. ) ;
#72 = DIRECTION ( 'NONE',  ( 1.000000000000000000, 0.0000000000000000000, 0.0000000000000000000 ) ) ;
#73 = CARTESIAN_POINT ( 'NONE',  ( 0.0000000000000000000, 0.0000000000000000000, 7.500000000000000000 ) ) ;
#74 = CC_DESIGN_APPROVAL ( #54, ( #9 ) ) ;
#75 = ORIENTED_EDGE ( 'NONE', *, *, #167, .T. ) ;
#76 = PLANE ( 'NONE',  #228 ) ;
#77 = EDGE_CURVE ( 'NONE', #34, #229, #224, .T. ) ;
#78 = CALENDAR_DATE ( 2017, 6, 6 ) ;
#79 = DIRECTION ( 'NONE',  ( 1.000000000000000000, 0.0000000000000000000, 0.0000000000000000000 ) ) ;
#80 = VERTEX_POINT ( 'NONE', #211 ) ;
#81 = EDGE_LOOP ( 'NONE', ( #205, #94, #146 ) ) ;
#82 = VECTOR ( 'NONE', #22, 1000.000000000000000 ) ;
#83 = PERSON_AND_ORGANIZATION_ROLE ( 'design_owner' ) ;
#84 = VECTOR ( 'NONE', #301, 1000.000000000000000 ) ;
#85 = APPROVAL_STATUS ( 'not_yet_approved' ) ;
#86 = ORIENTED_EDGE ( 'NONE', *, *, #199, .F. ) ;
#87 = APPLICATION_CONTEXT ( 'configuration controlled 3d designs of mechanical parts and assemblies' ) ;
#88 = ADVANCED_FACE ( 'NONE', ( #18 ), #256, .F. ) ;
#89 = PERSON_AND_ORGANIZATION ( #262, #261 ) ;
#90 = AXIS2_PLACEMENT_3D ( 'NONE', #241, #105, #46 ) ;
#91 = MANIFOLD_SOLID_BREP ( 'Boss-Extrude3', #130 ) ;
#92 = DIRECTION ( 'NONE',  ( 0.7071067811865474600, -0.7071067811865474600, 0.0000000000000000000 ) ) ;
#93 = CC_DESIGN_SECURITY_CLASSIFICATION ( #9, ( #255 ) ) ;
#94 = ORIENTED_EDGE ( 'NONE', *, *, #77, .T. ) ;
#95 = ADVANCED_BREP_SHAPE_REPRESENTATION ( 'Web Model 47047_48578', ( #172, #91, #128 ), #249 ) ;
#96 = VECTOR ( 'NONE', #266, 1000.000000000000100 ) ;
#97 = EDGE_CURVE ( 'NONE', #274, #10, #166, .T. ) ;
#98 = APPROVAL_ROLE ( '' ) ;
#99 = CARTESIAN_POINT ( 'NONE',  ( 7.499999999999998200, -7.500000000000000000, 7.500000000000000000 ) ) ;
#100 = CARTESIAN_POINT ( 'NONE',  ( -7.500000000000000000, 7.499999999999998200, -7.500000000000000000 ) ) ;
#101 = FACE_OUTER_BOUND ( 'NONE', #15, .T. ) ;
#102 = FACE_OUTER_BOUND ( 'NONE', #203, .T. ) ;
#103 = COORDINATED_UNIVERSAL_TIME_OFFSET ( 5, 0, .BEHIND. ) ;
#104 = ORIENTED_EDGE ( 'NONE', *, *, #150, .T. ) ;
#105 = DIRECTION ( 'NONE',  ( 0.7071067811865475700, 0.7071067811865475700, -0.0000000000000000000 ) ) ;
#106 = EDGE_LOOP ( 'NONE', ( #19, #303, #299 ) ) ;
#107 = PLANE ( 'NONE',  #157 ) ;
#108 = EDGE_LOOP ( 'NONE', ( #315, #140, #295, #276 ) ) ;
#109 = ORIENTED_EDGE ( 'NONE', *, *, #237, .F. ) ;
#110 = PRODUCT_RELATED_PRODUCT_CATEGORY ( 'detail', '', ( #184 ) ) ;
#111 = PERSON_AND_ORGANIZATION ( #262, #261 ) ;
#112 = APPLICATION_PROTOCOL_DEFINITION ( 'international standard', 'config_control_design', 1994, #87 ) ;
#113 = EDGE_CURVE ( 'NONE', #173, #235, #304, .T. ) ;
#114 = DIRECTION ( 'NONE',  ( 1.000000000000000000, 0.0000000000000000000, 0.0000000000000000000 ) ) ;
#115 = VECTOR ( 'NONE', #264, 1000.000000000000000 ) ;
#116 = ORIENTED_EDGE ( 'NONE', *, *, #179, .F. ) ;
#117 = EDGE_LOOP ( 'NONE', ( #239, #67, #127, #71 ) ) ;
#118 = LINE ( 'NONE', #208, #82 ) ;
#119 = PERSON_AND_ORGANIZATION_ROLE ( 'design_supplier' ) ;
#120 = CALENDAR_DATE ( 2017, 6, 6 ) ;
#121 = ORIENTED_EDGE ( 'NONE', *, *, #59, .T. ) ;
#122 = CARTESIAN_POINT ( 'NONE',  ( -6.133173666733495600E-016, -6.133173666733495600E-016, 7.500000000000000000 ) ) ;
#123 = AXIS2_PLACEMENT_3D ( 'NONE', #73, #132, #72 ) ;
#124 = EDGE_CURVE ( 'NONE', #24, #229, #29, .T. ) ;
#125 = CALENDAR_DATE ( 2017, 6, 6 ) ;
#126 = DIRECTION ( 'NONE',  ( 0.0000000000000000000, 1.000000000000000000, -0.0000000000000000000 ) ) ;
#127 = ORIENTED_EDGE ( 'NONE', *, *, #314, .F. ) ;
#128 = AXIS2_PLACEMENT_3D ( 'NONE', #16, #280, #114 ) ;
#129 = APPROVAL_ROLE ( '' ) ;
#130 = CLOSED_SHELL ( 'NONE', ( #88, #298, #17, #43, #1 ) ) ;
#131 = EDGE_CURVE ( 'NONE', #173, #34, #39, .T. ) ;
#132 = DIRECTION ( 'NONE',  ( -0.0000000000000000000, 0.0000000000000000000, 1.000000000000000000 ) ) ;
#133 = DIRECTION ( 'NONE',  ( 0.0000000000000000000, -0.0000000000000000000, 1.000000000000000000 ) ) ;
#134 = ORIENTED_EDGE ( 'NONE', *, *, #97, .F. ) ;
#135 = LINE ( 'NONE', #65, #84 ) ;
#136 = VECTOR ( 'NONE', #225, 1000.000000000000000 ) ;
#137 = CARTESIAN_POINT ( 'NONE',  ( -6.133173666733495600E-016, -6.133173666733495600E-016, 7.500000000000000000 ) ) ;
#138 = FACE_OUTER_BOUND ( 'NONE', #81, .T. ) ;
#139 = VECTOR ( 'NONE', #265, 1000.000000000000000 ) ;
#140 = ORIENTED_EDGE ( 'NONE', *, *, #131, .F. ) ;
#141 = ADVANCED_FACE ( 'NONE', ( #311 ), #196, .T. ) ;
#142 = ORIENTED_EDGE ( 'NONE', *, *, #150, .F. ) ;
#143 = PLANE ( 'NONE',  #288 ) ;
#144 = VERTEX_POINT ( 'NONE', #64 ) ;
#145 = VECTOR ( 'NONE', #2, 1000.000000000000100 ) ;
#146 = ORIENTED_EDGE ( 'NONE', *, *, #124, .F. ) ;
#147 = APPROVAL_STATUS ( 'not_yet_approved' ) ;
#148 = CC_DESIGN_PERSON_AND_ORGANIZATION_ASSIGNMENT ( #6, #83, ( #184 ) ) ;
#149 = CARTESIAN_POINT ( 'NONE',  ( 0.0000000000000000000, 7.499999999999999100, 7.500000000000000000 ) ) ;
#150 = EDGE_CURVE ( 'NONE', #245, #10, #118, .T. ) ;
#151 = EDGE_CURVE ( 'NONE', #173, #144, #4, .T. ) ;
#152 = PERSON_AND_ORGANIZATION ( #262, #261 ) ;
#153 = DIRECTION ( 'NONE',  ( 0.0000000000000000000, 1.000000000000000000, 0.0000000000000000000 ) ) ;
#154 = COORDINATED_UNIVERSAL_TIME_OFFSET ( 5, 0, .BEHIND. ) ;
#155 = APPROVAL_ROLE ( '' ) ;
#156 = FACE_OUTER_BOUND ( 'NONE', #117, .T. ) ;
#157 = AXIS2_PLACEMENT_3D ( 'NONE', #215, #52, #79 ) ;
#158 = CARTESIAN_POINT ( 'NONE',  ( 0.0000000000000000000, -7.499999999999999100, -7.500000000000000000 ) ) ;
#159 = ORIENTED_EDGE ( 'NONE', *, *, #188, .T. ) ;
#160 = ORIENTED_EDGE ( 'NONE', *, *, #282, .F. ) ;
#161 = VECTOR ( 'NONE', #185, 1000.000000000000000 ) ;
#162 = EDGE_LOOP ( 'NONE', ( #134, #194, #121, #104 ) ) ;
#163 = PRODUCT_DEFINITION ( 'UNKNOWN', '', #255, #23 ) ;
#164 = DATE_AND_TIME ( #38, #287 ) ;
#165 =( LENGTH_UNIT ( ) NAMED_UNIT ( * ) SI_UNIT ( .MILLI., .METRE. ) );
#166 = LINE ( 'NONE', #281, #32 ) ;
#167 = EDGE_CURVE ( 'NONE', #34, #24, #223, .T. ) ;
#168 = VERTEX_POINT ( 'NONE', #197 ) ;
#169 = ADVANCED_FACE ( 'NONE', ( #102 ), #107, .F. ) ;
#170 = CARTESIAN_POINT ( 'NONE',  ( 0.0000000000000000000, -7.499999999999999100, 7.500000000000000000 ) ) ;
#171 = VECTOR ( 'NONE', #92, 1000.000000000000100 ) ;
#172 = MANIFOLD_SOLID_BREP ( 'Boss-Extrude2', #290 ) ;
#173 = VERTEX_POINT ( 'NONE', #189 ) ;
#174 = VERTEX_POINT ( 'NONE', #316 ) ;
#175 = LOCAL_TIME ( 12, 59, 51.00000000000000000, #5 ) ;
#176 = ORIENTED_EDGE ( 'NONE', *, *, #237, .T. ) ;
#177 = DIRECTION ( 'NONE',  ( -0.0000000000000000000, -0.0000000000000000000, -1.000000000000000000 ) ) ;
#178 = CARTESIAN_POINT ( 'NONE',  ( -6.133173666733495600E-016, -6.133173666733495600E-016, 7.500000000000000000 ) ) ;
#179 = EDGE_CURVE ( 'NONE', #80, #168, #213, .T. ) ;
#180 = LINE ( 'NONE', #318, #309 ) ;
#181 = DIRECTION ( 'NONE',  ( 1.000000000000000000, 0.0000000000000000000, 0.0000000000000000000 ) ) ;
#182 = LOCAL_TIME ( 12, 59, 51.00000000000000000, #61 ) ;
#183 = DIRECTION ( 'NONE',  ( 1.000000000000000000, 0.0000000000000000000, 0.0000000000000000000 ) ) ;
#184 = PRODUCT ( 'Web Model 47047_48578', 'Web Model 47047_48578', '', ( #7 ) ) ;
#185 = DIRECTION ( 'NONE',  ( -0.0000000000000000000, -0.0000000000000000000, -1.000000000000000000 ) ) ;
#186 = APPROVAL ( #85, 'UNSPECIFIED' ) ;
#187 = CALENDAR_DATE ( 2017, 6, 6 ) ;
#188 = EDGE_CURVE ( 'NONE', #80, #245, #270, .T. ) ;
#189 = CARTESIAN_POINT ( 'NONE',  ( -7.500000000000000000, 7.499999999999998200, 7.500000000000000000 ) ) ;
#190 = CARTESIAN_POINT ( 'NONE',  ( 7.499999999999998200, -7.500000000000000000, 7.500000000000000000 ) ) ;
#191 = CARTESIAN_POINT ( 'NONE',  ( 0.0000000000000000000, 7.499999999999999100, 7.500000000000000000 ) ) ;
#192 = APPROVAL_PERSON_ORGANIZATION ( #111, #54, #155 ) ;
#193 = ORIENTED_EDGE ( 'NONE', *, *, #131, .T. ) ;
#194 = ORIENTED_EDGE ( 'NONE', *, *, #291, .F. ) ;
#195 = AXIS2_PLACEMENT_3D ( 'NONE', #36, #258, #305 ) ;
#196 = PLANE ( 'NONE',  #123 ) ;
#197 = CARTESIAN_POINT ( 'NONE',  ( -7.500000000000000000, 7.499999999999998200, 7.500000000000000000 ) ) ;
#198 = CC_DESIGN_APPROVAL ( #186, ( #163 ) ) ;
#199 = EDGE_CURVE ( 'NONE', #174, #274, #28, .T. ) ;
#200 = CARTESIAN_POINT ( 'NONE',  ( 0.0000000000000000000, 0.0000000000000000000, -7.500000000000000000 ) ) ;
#201 = CARTESIAN_POINT ( 'NONE',  ( -7.500000000000000000, 0.0000000000000000000, 7.500000000000000000 ) ) ;
#202 = LINE ( 'NONE', #310, #161 ) ;
#203 = EDGE_LOOP ( 'NONE', ( #271, #68, #109 ) ) ;
#204 = PLANE ( 'NONE',  #56 ) ;
#205 = ORIENTED_EDGE ( 'NONE', *, *, #167, .F. ) ;
#206 = SHAPE_DEFINITION_REPRESENTATION ( #212, #95 ) ;
#207 = CARTESIAN_POINT ( 'NONE',  ( 0.0000000000000000000, 0.0000000000000000000, 7.500000000000000000 ) ) ;
#208 = CARTESIAN_POINT ( 'NONE',  ( 7.499999999999998200, -7.500000000000000000, 7.500000000000000000 ) ) ;
#209 = DIRECTION ( 'NONE',  ( -0.0000000000000000000, -0.0000000000000000000, -1.000000000000000000 ) ) ;
#210 = LINE ( 'NONE', #178, #145 ) ;
#211 = CARTESIAN_POINT ( 'NONE',  ( -7.500000000000000000, -7.499999999999999100, 7.500000000000000000 ) ) ;
#212 = PRODUCT_DEFINITION_SHAPE ( 'NONE', 'NONE',  #163 ) ;
#213 = LINE ( 'NONE', #201, #139 ) ;
#214 = DATE_AND_TIME ( #187, #218 ) ;
#215 = CARTESIAN_POINT ( 'NONE',  ( 0.0000000000000000000, 0.0000000000000000000, -7.500000000000000000 ) ) ;
#216 = LOCAL_TIME ( 12, 59, 51.00000000000000000, #103 ) ;
#217 = ORIENTED_EDGE ( 'NONE', *, *, #291, .T. ) ;
#218 = LOCAL_TIME ( 12, 59, 51.00000000000000000, #248 ) ;
#219 = CC_DESIGN_PERSON_AND_ORGANIZATION_ASSIGNMENT ( #70, #259, ( #163 ) ) ;
#220 = EDGE_CURVE ( 'NONE', #80, #174, #202, .T. ) ;
#221 = VECTOR ( 'NONE', #13, 1000.000000000000000 ) ;
#222 = CARTESIAN_POINT ( 'NONE',  ( -7.500000000000000000, 7.499999999999998200, 7.500000000000000000 ) ) ;
#223 = LINE ( 'NONE', #234, #171 ) ;
#224 = LINE ( 'NONE', #41, #221 ) ;
#225 = DIRECTION ( 'NONE',  ( -0.0000000000000000000, -0.0000000000000000000, -1.000000000000000000 ) ) ;
#226 = CARTESIAN_POINT ( 'NONE',  ( 7.499999999999998200, -7.500000000000000000, -7.500000000000000000 ) ) ;
#227 = FACE_OUTER_BOUND ( 'NONE', #30, .T. ) ;
#228 = AXIS2_PLACEMENT_3D ( 'NONE', #122, #55, #44 ) ;
#229 = VERTEX_POINT ( 'NONE', #11 ) ;
#230 = APPROVAL_PERSON_ORGANIZATION ( #45, #268, #98 ) ;
#231 = APPROVAL_DATE_TIME ( #214, #268 ) ;
#232 = CC_DESIGN_DATE_AND_TIME_ASSIGNMENT ( #236, #297, ( #163 ) ) ;
#233 = VECTOR ( 'NONE', #240, 1000.000000000000000 ) ;
#234 = CARTESIAN_POINT ( 'NONE',  ( -6.133173666733495600E-016, -6.133173666733495600E-016, -7.500000000000000000 ) ) ;
#235 = VERTEX_POINT ( 'NONE', #190 ) ;
#236 = DATE_AND_TIME ( #78, #175 ) ;
#237 = EDGE_CURVE ( 'NONE', #174, #10, #14, .T. ) ;
#238 = EDGE_LOOP ( 'NONE', ( #116, #159, #8 ) ) ;
#239 = ORIENTED_EDGE ( 'NONE', *, *, #124, .T. ) ;
#240 = DIRECTION ( 'NONE',  ( 0.0000000000000000000, 1.000000000000000000, -0.0000000000000000000 ) ) ;
#241 = CARTESIAN_POINT ( 'NONE',  ( -6.133173666733495600E-016, -6.133173666733495600E-016, 7.500000000000000000 ) ) ;
#242 = VECTOR ( 'NONE', #209, 1000.000000000000000 ) ;
#243 = APPROVAL_PERSON_ORGANIZATION ( #12, #186, #129 ) ;
#244 = EDGE_LOOP ( 'NONE', ( #75, #160, #296, #193 ) ) ;
#245 = VERTEX_POINT ( 'NONE', #99 ) ;
#246 = DIRECTION ( 'NONE',  ( 0.0000000000000000000, 1.000000000000000000, 0.0000000000000000000 ) ) ;
#247 = ADVANCED_FACE ( 'NONE', ( #101 ), #27, .T. ) ;
#248 = COORDINATED_UNIVERSAL_TIME_OFFSET ( 5, 0, .BEHIND. ) ;
#249 =( GEOMETRIC_REPRESENTATION_CONTEXT ( 3 ) GLOBAL_UNCERTAINTY_ASSIGNED_CONTEXT ( ( #3 ) ) GLOBAL_UNIT_ASSIGNED_CONTEXT ( ( #165, #286, #26 ) ) REPRESENTATION_CONTEXT ( 'NONE', 'WORKASPACE' ) );
#250 = APPROVAL_STATUS ( 'not_yet_approved' ) ;
#251 = LINE ( 'NONE', #269, #136 ) ;
#252 = PERSON_AND_ORGANIZATION_ROLE ( 'creator' ) ;
#253 = DIRECTION ( 'NONE',  ( -1.000000000000000000, 0.0000000000000000000, 0.0000000000000000000 ) ) ;
#254 = ORIENTED_EDGE ( 'NONE', *, *, #220, .F. ) ;
#255 = PRODUCT_DEFINITION_FORMATION_WITH_SPECIFIED_SOURCE ( 'ANY', '', #184, .NOT_KNOWN. ) ;
#256 = PLANE ( 'NONE',  #90 ) ;
#257 = FACE_OUTER_BOUND ( 'NONE', #106, .T. ) ;
#258 = DIRECTION ( 'NONE',  ( -1.000000000000000000, 0.0000000000000000000, 0.0000000000000000000 ) ) ;
#259 = PERSON_AND_ORGANIZATION_ROLE ( 'creator' ) ;
#260 = APPROVAL_DATE_TIME ( #49, #186 ) ;
#261 = ORGANIZATION ( 'UNSPECIFIED', 'UNSPECIFIED', '' ) ;
#262 = PERSON ( 'UNSPECIFIED', 'UNSPECIFIED', 'UNSPECIFIED', ('UNSPECIFIED'), ('UNSPECIFIED'), ('UNSPECIFIED') ) ;
#263 = DIRECTION ( 'NONE',  ( -0.0000000000000000000, -0.0000000000000000000, -1.000000000000000000 ) ) ;
#264 = DIRECTION ( 'NONE',  ( 1.000000000000000000, 0.0000000000000000000, 0.0000000000000000000 ) ) ;
#265 = DIRECTION ( 'NONE',  ( 0.0000000000000000000, 1.000000000000000000, -0.0000000000000000000 ) ) ;
#266 = DIRECTION ( 'NONE',  ( 0.7071067811865474600, -0.7071067811865474600, 0.0000000000000000000 ) ) ;
#267 = PLANE ( 'NONE',  #51 ) ;
#268 = APPROVAL ( #250, 'UNSPECIFIED' ) ;
#269 = CARTESIAN_POINT ( 'NONE',  ( -7.500000000000000000, 7.499999999999998200, 7.500000000000000000 ) ) ;
#270 = LINE ( 'NONE', #170, #115 ) ;
#271 = ORIENTED_EDGE ( 'NONE', *, *, #199, .T. ) ;
#272 = ADVANCED_FACE ( 'NONE', ( #273 ), #76, .T. ) ;
#273 = FACE_OUTER_BOUND ( 'NONE', #162, .T. ) ;
#274 = VERTEX_POINT ( 'NONE', #100 ) ;
#275 = PLANE ( 'NONE',  #25 ) ;
#276 = ORIENTED_EDGE ( 'NONE', *, *, #47, .T. ) ;
#277 = FACE_OUTER_BOUND ( 'NONE', #108, .T. ) ;
#278 = CARTESIAN_POINT ( 'NONE',  ( 7.499999999999998200, 0.0000000000000000000, -7.500000000000000000 ) ) ;
#279 = ORIENTED_EDGE ( 'NONE', *, *, #188, .F. ) ;
#280 = DIRECTION ( 'NONE',  ( 0.0000000000000000000, 0.0000000000000000000, 1.000000000000000000 ) ) ;
#281 = CARTESIAN_POINT ( 'NONE',  ( -6.133173666733495600E-016, -6.133173666733495600E-016, -7.500000000000000000 ) ) ;
#282 = EDGE_CURVE ( 'NONE', #235, #24, #180, .T. ) ;
#283 = DATE_AND_TIME ( #120, #182 ) ;
#284 = DIRECTION ( 'NONE',  ( 1.000000000000000000, 0.0000000000000000000, 0.0000000000000000000 ) ) ;
#285 = CC_DESIGN_APPROVAL ( #268, ( #255 ) ) ;
#286 =( NAMED_UNIT ( * ) PLANE_ANGLE_UNIT ( ) SI_UNIT ( $, .RADIAN. ) );
#287 = LOCAL_TIME ( 12, 59, 51.00000000000000000, #154 ) ;
#288 = AXIS2_PLACEMENT_3D ( 'NONE', #200, #306, #307 ) ;
#289 = DIRECTION ( 'NONE',  ( 0.0000000000000000000, 0.0000000000000000000, 1.000000000000000000 ) ) ;
#290 = CLOSED_SHELL ( 'NONE', ( #247, #60, #272, #141, #169 ) ) ;
#291 = EDGE_CURVE ( 'NONE', #168, #274, #251, .T. ) ;
#292 = VECTOR ( 'NONE', #263, 1000.000000000000000 ) ;
#293 = CARTESIAN_POINT ( 'NONE',  ( 0.0000000000000000000, -7.499999999999999100, 7.500000000000000000 ) ) ;
#294 = DIRECTION ( 'NONE',  ( 0.0000000000000000000, -0.0000000000000000000, 1.000000000000000000 ) ) ;
#295 = ORIENTED_EDGE ( 'NONE', *, *, #151, .T. ) ;
#296 = ORIENTED_EDGE ( 'NONE', *, *, #113, .F. ) ;
#297 = DATE_TIME_ROLE ( 'creation_date' ) ;
#298 = ADVANCED_FACE ( 'NONE', ( #156 ), #204, .F. ) ;
#299 = ORIENTED_EDGE ( 'NONE', *, *, #151, .F. ) ;
#300 = SECURITY_CLASSIFICATION_LEVEL ( 'unclassified' ) ;
#301 = DIRECTION ( 'NONE',  ( 0.0000000000000000000, 1.000000000000000000, -0.0000000000000000000 ) ) ;
#302 = CC_DESIGN_PERSON_AND_ORGANIZATION_ASSIGNMENT ( #89, #252, ( #255 ) ) ;
#303 = ORIENTED_EDGE ( 'NONE', *, *, #314, .T. ) ;
#304 = LINE ( 'NONE', #137, #96 ) ;
#305 = DIRECTION ( 'NONE',  ( 0.0000000000000000000, 0.0000000000000000000, 1.000000000000000000 ) ) ;
#306 = DIRECTION ( 'NONE',  ( -0.0000000000000000000, 0.0000000000000000000, 1.000000000000000000 ) ) ;
#307 = DIRECTION ( 'NONE',  ( 1.000000000000000000, 0.0000000000000000000, 0.0000000000000000000 ) ) ;
#308 = VECTOR ( 'NONE', #181, 1000.000000000000000 ) ;
#309 = VECTOR ( 'NONE', #177, 1000.000000000000000 ) ;
#310 = CARTESIAN_POINT ( 'NONE',  ( -7.500000000000000000, -7.499999999999999100, 7.500000000000000000 ) ) ;
#311 = FACE_OUTER_BOUND ( 'NONE', #238, .T. ) ;
#312 = DIRECTION ( 'NONE',  ( -0.0000000000000000000, 0.0000000000000000000, 1.000000000000000000 ) ) ;
#313 = ORIENTED_EDGE ( 'NONE', *, *, #220, .T. ) ;
#314 = EDGE_CURVE ( 'NONE', #235, #144, #135, .T. ) ;
#315 = ORIENTED_EDGE ( 'NONE', *, *, #77, .F. ) ;
#316 = CARTESIAN_POINT ( 'NONE',  ( -7.500000000000000000, -7.499999999999999100, -7.500000000000000000 ) ) ;
#317 = CC_DESIGN_PERSON_AND_ORGANIZATION_ASSIGNMENT ( #152, #119, ( #255 ) ) ;
#318 = CARTESIAN_POINT ( 'NONE',  ( 7.499999999999998200, -7.500000000000000000, 7.500000000000000000 ) ) ;
#319 = CARTESIAN_POINT ( 'NONE',  ( 7.499999999999998200, 0.0000000000000000000, 7.500000000000000000 ) ) ;
#320 = AXIS2_PLACEMENT_3D ( 'NONE', #149, #246, #133 ) ;
#321 = PERSON_AND_ORGANIZATION_ROLE ( 'classification_officer' ) ;
ENDSEC;
END-ISO-10303-21;
