ISO-10303-21;
HEADER;
FILE_DESCRIPTION (( 'STEP AP203' ),
    '1' );
FILE_NAME ('34600_34600.step',
    '2017-08-24T13:15:58',
    ( '' ),
    ( '' ),
    'SwSTEP 2.0',
    'SolidWorks 2016',
    '' );
FILE_SCHEMA (( 'CONFIG_CONTROL_DESIGN' ));
ENDSEC;

DATA;
#1 = DIRECTION ( 'NONE',  ( 1.000000000000000000, 0.0000000000000000000, 0.0000000000000000000 ) ) ;
#2 = DATE_AND_TIME ( #114, #143 ) ;
#3 = CIRCLE ( 'NONE', #42, 25.00000000000000000 ) ;
#4 = CARTESIAN_POINT ( 'NONE',  ( 0.0000000000000000000, 0.0000000000000000000, 0.0000000000000000000 ) ) ;
#5 = CC_DESIGN_SECURITY_CLASSIFICATION ( #156, ( #98 ) ) ;
#6 = ORIENTED_EDGE ( 'NONE', *, *, #126, .F. ) ;
#7 = CC_DESIGN_APPROVAL ( #88, ( #86 ) ) ;
#8 = ORIENTED_EDGE ( 'NONE', *, *, #67, .F. ) ;
#9 = DIRECTION ( 'NONE',  ( -0.0000000000000000000, -0.0000000000000000000, -1.000000000000000000 ) ) ;
#10 = APPROVAL_ROLE ( '' ) ;
#11 = DATE_AND_TIME ( #52, #40 ) ;
#12 = PERSON_AND_ORGANIZATION ( #84, #142 ) ;
#13 = CALENDAR_DATE ( 2017, 24, 8 ) ;
#14 = APPROVAL ( #109, 'UNSPECIFIED' ) ;
#15 = DIRECTION ( 'NONE',  ( -1.000000000000000000, 0.0000000000000000000, 0.0000000000000000000 ) ) ;
#16 = APPROVAL_PERSON_ORGANIZATION ( #117, #123, #58 ) ;
#17 = DATE_AND_TIME ( #107, #66 ) ;
#18 = DIRECTION ( 'NONE',  ( 0.0000000000000000000, 0.0000000000000000000, 1.000000000000000000 ) ) ;
#19 = AXIS2_PLACEMENT_3D ( 'NONE', #151, #155, #46 ) ;
#20 = DIRECTION ( 'NONE',  ( 0.0000000000000000000, 0.0000000000000000000, 1.000000000000000000 ) ) ;
#21 = PERSON_AND_ORGANIZATION_ROLE ( 'creator' ) ;
#22 = DATE_TIME_ROLE ( 'creation_date' ) ;
#23 = ORIENTED_EDGE ( 'NONE', *, *, #67, .T. ) ;
#24 = ADVANCED_BREP_SHAPE_REPRESENTATION ( '34600_34600', ( #97, #127 ), #62 ) ;
#25 = PERSON_AND_ORGANIZATION ( #84, #142 ) ;
#26 = CC_DESIGN_PERSON_AND_ORGANIZATION_ASSIGNMENT ( #57, #154, ( #86 ) ) ;
#27 = EDGE_LOOP ( 'NONE', ( #103, #125, #23, #30 ) ) ;
#28 = DIRECTION ( 'NONE',  ( -0.0000000000000000000, -0.0000000000000000000, -1.000000000000000000 ) ) ;
#29 = CARTESIAN_POINT ( 'NONE',  ( 0.0000000000000000000, 0.0000000000000000000, 2.000000000000000000 ) ) ;
#30 = ORIENTED_EDGE ( 'NONE', *, *, #139, .F. ) ;
#31 = CARTESIAN_POINT ( 'NONE',  ( 25.00000000000000000, 3.061616997868383000E-015, 0.0000000000000000000 ) ) ;
#32 = APPROVAL_DATE_TIME ( #101, #14 ) ;
#33 = LINE ( 'NONE', #166, #78 ) ;
#34 = APPROVAL_STATUS ( 'not_yet_approved' ) ;
#35 = CC_DESIGN_DATE_AND_TIME_ASSIGNMENT ( #76, #95, ( #156 ) ) ;
#36 = ADVANCED_FACE ( 'NONE', ( #141 ), #131, .T. ) ;
#37 = LOCAL_TIME ( 9, 15, 58.00000000000000000, #118 ) ;
#38 = PRODUCT_RELATED_PRODUCT_CATEGORY ( 'detail', '', ( #71 ) ) ;
#39 = CALENDAR_DATE ( 2017, 24, 8 ) ;
#40 = LOCAL_TIME ( 9, 15, 58.00000000000000000, #79 ) ;
#41 = EDGE_LOOP ( 'NONE', ( #175, #167, #121, #55 ) ) ;
#42 = AXIS2_PLACEMENT_3D ( 'NONE', #4, #91, #102 ) ;
#43 = UNCERTAINTY_MEASURE_WITH_UNIT (LENGTH_MEASURE( 1.000000000000000100E-005 ), #110, 'distance_accuracy_value', 'NONE');
#44 = PERSON_AND_ORGANIZATION ( #84, #142 ) ;
#45 = DIRECTION ( 'NONE',  ( 1.000000000000000000, 0.0000000000000000000, -0.0000000000000000000 ) ) ;
#46 = DIRECTION ( 'NONE',  ( 1.000000000000000000, 0.0000000000000000000, 0.0000000000000000000 ) ) ;
#47 = APPROVAL_STATUS ( 'not_yet_approved' ) ;
#48 = MECHANICAL_CONTEXT ( 'NONE', #119, 'mechanical' ) ;
#49 = PLANE ( 'NONE',  #111 ) ;
#50 = PERSON_AND_ORGANIZATION ( #84, #142 ) ;
#51 = AXIS2_PLACEMENT_3D ( 'NONE', #68, #20, #170 ) ;
#52 = CALENDAR_DATE ( 2017, 24, 8 ) ;
#53 = APPROVAL_PERSON_ORGANIZATION ( #87, #88, #69 ) ;
#54 = EDGE_LOOP ( 'NONE', ( #165, #136 ) ) ;
#55 = ORIENTED_EDGE ( 'NONE', *, *, #126, .T. ) ;
#56 = AXIS2_PLACEMENT_3D ( 'NONE', #122, #82, #120 ) ;
#57 = PERSON_AND_ORGANIZATION ( #84, #142 ) ;
#58 = APPROVAL_ROLE ( '' ) ;
#59 = PLANE ( 'NONE',  #51 ) ;
#60 = VERTEX_POINT ( 'NONE', #92 ) ;
#61 = DIRECTION ( 'NONE',  ( 1.000000000000000000, 0.0000000000000000000, 0.0000000000000000000 ) ) ;
#62 =( GEOMETRIC_REPRESENTATION_CONTEXT ( 3 ) GLOBAL_UNCERTAINTY_ASSIGNED_CONTEXT ( ( #43 ) ) GLOBAL_UNIT_ASSIGNED_CONTEXT ( ( #110, #135, #168 ) ) REPRESENTATION_CONTEXT ( 'NONE', 'WORKASPACE' ) );
#63 = DIRECTION ( 'NONE',  ( -1.000000000000000000, 0.0000000000000000000, 0.0000000000000000000 ) ) ;
#64 = EDGE_CURVE ( 'NONE', #60, #99, #129, .T. ) ;
#65 = SECURITY_CLASSIFICATION_LEVEL ( 'unclassified' ) ;
#66 = LOCAL_TIME ( 9, 15, 58.00000000000000000, #146 ) ;
#67 = EDGE_CURVE ( 'NONE', #89, #147, #3, .T. ) ;
#68 = CARTESIAN_POINT ( 'NONE',  ( 0.0000000000000000000, 0.0000000000000000000, 0.0000000000000000000 ) ) ;
#69 = APPROVAL_ROLE ( '' ) ;
#70 = PERSON_AND_ORGANIZATION_ROLE ( 'design_supplier' ) ;
#71 = PRODUCT ( '34600_34600', '34600_34600', '', ( #48 ) ) ;
#72 = APPROVAL_PERSON_ORGANIZATION ( #44, #14, #10 ) ;
#73 = ADVANCED_FACE ( 'NONE', ( #153 ), #159, .T. ) ;
#74 = LINE ( 'NONE', #96, #113 ) ;
#75 = DESIGN_CONTEXT ( 'detailed design', #138, 'design' ) ;
#76 = DATE_AND_TIME ( #13, #130 ) ;
#77 = DIRECTION ( 'NONE',  ( 0.0000000000000000000, 0.0000000000000000000, 1.000000000000000000 ) ) ;
#78 = VECTOR ( 'NONE', #105, 1000.000000000000000 ) ;
#79 = COORDINATED_UNIVERSAL_TIME_OFFSET ( 5, 0, .BEHIND. ) ;
#80 = CC_DESIGN_PERSON_AND_ORGANIZATION_ASSIGNMENT ( #124, #21, ( #98 ) ) ;
#81 = FACE_OUTER_BOUND ( 'NONE', #108, .T. ) ;
#82 = DIRECTION ( 'NONE',  ( 0.0000000000000000000, 0.0000000000000000000, 1.000000000000000000 ) ) ;
#83 = CARTESIAN_POINT ( 'NONE',  ( 0.0000000000000000000, 0.0000000000000000000, 2.000000000000000000 ) ) ;
#84 = PERSON ( 'UNSPECIFIED', 'UNSPECIFIED', 'UNSPECIFIED', ('UNSPECIFIED'), ('UNSPECIFIED'), ('UNSPECIFIED') ) ;
#85 = CARTESIAN_POINT ( 'NONE',  ( 0.0000000000000000000, 0.0000000000000000000, 0.0000000000000000000 ) ) ;
#86 = PRODUCT_DEFINITION ( 'UNKNOWN', '', #98, #75 ) ;
#87 = PERSON_AND_ORGANIZATION ( #84, #142 ) ;
#88 = APPROVAL ( #34, 'UNSPECIFIED' ) ;
#89 = VERTEX_POINT ( 'NONE', #31 ) ;
#90 = AXIS2_PLACEMENT_3D ( 'NONE', #128, #148, #63 ) ;
#91 = DIRECTION ( 'NONE',  ( 0.0000000000000000000, 0.0000000000000000000, 1.000000000000000000 ) ) ;
#92 = CARTESIAN_POINT ( 'NONE',  ( -25.00000000000000000, 0.0000000000000000000, 2.000000000000000000 ) ) ;
#93 = CC_DESIGN_APPROVAL ( #123, ( #98 ) ) ;
#94 = PERSON_AND_ORGANIZATION_ROLE ( 'design_owner' ) ;
#95 = DATE_TIME_ROLE ( 'classification_date' ) ;
#96 = CARTESIAN_POINT ( 'NONE',  ( -25.00000000000000000, 0.0000000000000000000, 2.000000000000000000 ) ) ;
#97 = MANIFOLD_SOLID_BREP ( 'Boss-Extrude1', #116 ) ;
#98 = PRODUCT_DEFINITION_FORMATION_WITH_SPECIFIED_SOURCE ( 'ANY', '', #71, .NOT_KNOWN. ) ;
#99 = VERTEX_POINT ( 'NONE', #149 ) ;
#100 = CC_DESIGN_PERSON_AND_ORGANIZATION_ASSIGNMENT ( #50, #70, ( #98 ) ) ;
#101 = DATE_AND_TIME ( #39, #37 ) ;
#102 = DIRECTION ( 'NONE',  ( 1.000000000000000000, 0.0000000000000000000, 0.0000000000000000000 ) ) ;
#103 = ORIENTED_EDGE ( 'NONE', *, *, #134, .F. ) ;
#104 = COORDINATED_UNIVERSAL_TIME_OFFSET ( 5, 0, .BEHIND. ) ;
#105 = DIRECTION ( 'NONE',  ( -0.0000000000000000000, -0.0000000000000000000, -1.000000000000000000 ) ) ;
#106 = PERSON_AND_ORGANIZATION_ROLE ( 'classification_officer' ) ;
#107 = CALENDAR_DATE ( 2017, 24, 8 ) ;
#108 = EDGE_LOOP ( 'NONE', ( #6, #8 ) ) ;
#109 = APPROVAL_STATUS ( 'not_yet_approved' ) ;
#110 =( LENGTH_UNIT ( ) NAMED_UNIT ( * ) SI_UNIT ( .MILLI., .METRE. ) );
#111 = AXIS2_PLACEMENT_3D ( 'NONE', #83, #18, #45 ) ;
#112 = COORDINATED_UNIVERSAL_TIME_OFFSET ( 5, 0, .BEHIND. ) ;
#113 = VECTOR ( 'NONE', #9, 1000.000000000000000 ) ;
#114 = CALENDAR_DATE ( 2017, 24, 8 ) ;
#115 = EDGE_CURVE ( 'NONE', #99, #89, #33, .T. ) ;
#116 = CLOSED_SHELL ( 'NONE', ( #73, #36, #171, #173 ) ) ;
#117 = PERSON_AND_ORGANIZATION ( #84, #142 ) ;
#118 = COORDINATED_UNIVERSAL_TIME_OFFSET ( 5, 0, .BEHIND. ) ;
#119 = APPLICATION_CONTEXT ( 'configuration controlled 3d designs of mechanical parts and assemblies' ) ;
#120 = DIRECTION ( 'NONE',  ( 1.000000000000000000, 0.0000000000000000000, 0.0000000000000000000 ) ) ;
#121 = ORIENTED_EDGE ( 'NONE', *, *, #139, .T. ) ;
#122 = CARTESIAN_POINT ( 'NONE',  ( 0.0000000000000000000, 0.0000000000000000000, 0.0000000000000000000 ) ) ;
#123 = APPROVAL ( #47, 'UNSPECIFIED' ) ;
#124 = PERSON_AND_ORGANIZATION ( #84, #142 ) ;
#125 = ORIENTED_EDGE ( 'NONE', *, *, #115, .T. ) ;
#126 = EDGE_CURVE ( 'NONE', #147, #89, #174, .T. ) ;
#127 = AXIS2_PLACEMENT_3D ( 'NONE', #85, #172, #61 ) ;
#128 = CARTESIAN_POINT ( 'NONE',  ( 0.0000000000000000000, 0.0000000000000000000, 2.000000000000000000 ) ) ;
#129 = CIRCLE ( 'NONE', #132, 25.00000000000000000 ) ;
#130 = LOCAL_TIME ( 9, 15, 58.00000000000000000, #112 ) ;
#131 = CYLINDRICAL_SURFACE ( 'NONE', #90, 25.00000000000000000 ) ;
#132 = AXIS2_PLACEMENT_3D ( 'NONE', #144, #77, #1 ) ;
#133 = APPLICATION_PROTOCOL_DEFINITION ( 'international standard', 'config_control_design', 1994, #138 ) ;
#134 = EDGE_CURVE ( 'NONE', #99, #60, #152, .T. ) ;
#135 =( NAMED_UNIT ( * ) PLANE_ANGLE_UNIT ( ) SI_UNIT ( $, .RADIAN. ) );
#136 = ORIENTED_EDGE ( 'NONE', *, *, #134, .T. ) ;
#137 = CARTESIAN_POINT ( 'NONE',  ( -25.00000000000000000, 0.0000000000000000000, 0.0000000000000000000 ) ) ;
#138 = APPLICATION_CONTEXT ( 'configuration controlled 3d designs of mechanical parts and assemblies' ) ;
#139 = EDGE_CURVE ( 'NONE', #60, #147, #74, .T. ) ;
#140 = FACE_OUTER_BOUND ( 'NONE', #54, .T. ) ;
#141 = FACE_OUTER_BOUND ( 'NONE', #41, .T. ) ;
#142 = ORGANIZATION ( 'UNSPECIFIED', 'UNSPECIFIED', '' ) ;
#143 = LOCAL_TIME ( 9, 15, 58.00000000000000000, #104 ) ;
#144 = CARTESIAN_POINT ( 'NONE',  ( 0.0000000000000000000, 0.0000000000000000000, 2.000000000000000000 ) ) ;
#145 = CC_DESIGN_DATE_AND_TIME_ASSIGNMENT ( #11, #22, ( #86 ) ) ;
#146 = COORDINATED_UNIVERSAL_TIME_OFFSET ( 5, 0, .BEHIND. ) ;
#147 = VERTEX_POINT ( 'NONE', #137 ) ;
#148 = DIRECTION ( 'NONE',  ( -0.0000000000000000000, -0.0000000000000000000, -1.000000000000000000 ) ) ;
#149 = CARTESIAN_POINT ( 'NONE',  ( 25.00000000000000000, 3.061616997868383000E-015, 2.000000000000000000 ) ) ;
#150 = SHAPE_DEFINITION_REPRESENTATION ( #161, #24 ) ;
#151 = CARTESIAN_POINT ( 'NONE',  ( 0.0000000000000000000, 0.0000000000000000000, 2.000000000000000000 ) ) ;
#152 = CIRCLE ( 'NONE', #19, 25.00000000000000000 ) ;
#153 = FACE_OUTER_BOUND ( 'NONE', #27, .T. ) ;
#154 = PERSON_AND_ORGANIZATION_ROLE ( 'creator' ) ;
#155 = DIRECTION ( 'NONE',  ( 0.0000000000000000000, 0.0000000000000000000, 1.000000000000000000 ) ) ;
#156 = SECURITY_CLASSIFICATION ( '', '', #65 ) ;
#157 = APPLICATION_PROTOCOL_DEFINITION ( 'international standard', 'config_control_design', 1994, #119 ) ;
#158 = APPROVAL_DATE_TIME ( #2, #123 ) ;
#159 = CYLINDRICAL_SURFACE ( 'NONE', #164, 25.00000000000000000 ) ;
#160 = CC_DESIGN_APPROVAL ( #14, ( #156 ) ) ;
#161 = PRODUCT_DEFINITION_SHAPE ( 'NONE', 'NONE',  #86 ) ;
#162 = APPROVAL_DATE_TIME ( #17, #88 ) ;
#163 = CC_DESIGN_PERSON_AND_ORGANIZATION_ASSIGNMENT ( #25, #106, ( #156 ) ) ;
#164 = AXIS2_PLACEMENT_3D ( 'NONE', #29, #28, #15 ) ;
#165 = ORIENTED_EDGE ( 'NONE', *, *, #64, .T. ) ;
#166 = CARTESIAN_POINT ( 'NONE',  ( 25.00000000000000000, 3.061616997868383000E-015, 2.000000000000000000 ) ) ;
#167 = ORIENTED_EDGE ( 'NONE', *, *, #64, .F. ) ;
#168 =( NAMED_UNIT ( * ) SI_UNIT ( $, .STERADIAN. ) SOLID_ANGLE_UNIT ( ) );
#169 = CC_DESIGN_PERSON_AND_ORGANIZATION_ASSIGNMENT ( #12, #94, ( #71 ) ) ;
#170 = DIRECTION ( 'NONE',  ( 1.000000000000000000, 0.0000000000000000000, -0.0000000000000000000 ) ) ;
#171 = ADVANCED_FACE ( 'NONE', ( #140 ), #49, .T. ) ;
#172 = DIRECTION ( 'NONE',  ( 0.0000000000000000000, 0.0000000000000000000, 1.000000000000000000 ) ) ;
#173 = ADVANCED_FACE ( 'NONE', ( #81 ), #59, .F. ) ;
#174 = CIRCLE ( 'NONE', #56, 25.00000000000000000 ) ;
#175 = ORIENTED_EDGE ( 'NONE', *, *, #115, .F. ) ;
ENDSEC;
END-ISO-10303-21;
