ISO-10303-21;
HEADER;
FILE_DESCRIPTION (( 'STEP AP203' ),
    '1' );
FILE_NAME ('34599_36937.step',
    '2017-08-24T13:19:06',
    ( '' ),
    ( '' ),
    'SwSTEP 2.0',
    'SolidWorks 2016',
    '' );
FILE_SCHEMA (( 'CONFIG_CONTROL_DESIGN' ));
ENDSEC;

DATA;
#1 = APPROVAL_DATE_TIME ( #116, #7 ) ;
#2 = CARTESIAN_POINT ( 'NONE',  ( -25.00000000000000000, 0.0000000000000000000, 0.0000000000000000000 ) ) ;
#3 = CLOSED_SHELL ( 'NONE', ( #17, #101, #72, #29 ) ) ;
#4 = AXIS2_PLACEMENT_3D ( 'NONE', #120, #121, #52 ) ;
#5 = CC_DESIGN_APPROVAL ( #102, ( #172 ) ) ;
#6 = PERSON_AND_ORGANIZATION_ROLE ( 'creator' ) ;
#7 = APPROVAL ( #110, 'UNSPECIFIED' ) ;
#8 = DIRECTION ( 'NONE',  ( 1.000000000000000000, 0.0000000000000000000, 0.0000000000000000000 ) ) ;
#9 = CALENDAR_DATE ( 2017, 24, 8 ) ;
#10 = CC_DESIGN_SECURITY_CLASSIFICATION ( #100, ( #165 ) ) ;
#11 = LOCAL_TIME ( 9, 19, 6.000000000000000000, #61 ) ;
#12 = VERTEX_POINT ( 'NONE', #77 ) ;
#13 = DATE_AND_TIME ( #9, #11 ) ;
#14 = CC_DESIGN_PERSON_AND_ORGANIZATION_ASSIGNMENT ( #41, #6, ( #172 ) ) ;
#15 = PERSON_AND_ORGANIZATION ( #23, #40 ) ;
#16 = CC_DESIGN_DATE_AND_TIME_ASSIGNMENT ( #99, #53, ( #100 ) ) ;
#17 = ADVANCED_FACE ( 'NONE', ( #87 ), #138, .T. ) ;
#18 = PRODUCT_RELATED_PRODUCT_CATEGORY ( 'detail', '', ( #38 ) ) ;
#19 = VECTOR ( 'NONE', #65, 1000.000000000000000 ) ;
#20 = SECURITY_CLASSIFICATION_LEVEL ( 'unclassified' ) ;
#21 =( NAMED_UNIT ( * ) PLANE_ANGLE_UNIT ( ) SI_UNIT ( $, .RADIAN. ) );
#22 = DATE_TIME_ROLE ( 'creation_date' ) ;
#23 = PERSON ( 'UNSPECIFIED', 'UNSPECIFIED', 'UNSPECIFIED', ('UNSPECIFIED'), ('UNSPECIFIED'), ('UNSPECIFIED') ) ;
#24 =( GEOMETRIC_REPRESENTATION_CONTEXT ( 3 ) GLOBAL_UNCERTAINTY_ASSIGNED_CONTEXT ( ( #141 ) ) GLOBAL_UNIT_ASSIGNED_CONTEXT ( ( #91, #21, #109 ) ) REPRESENTATION_CONTEXT ( 'NONE', 'WORKASPACE' ) );
#25 = CC_DESIGN_DATE_AND_TIME_ASSIGNMENT ( #31, #22, ( #172 ) ) ;
#26 = EDGE_LOOP ( 'NONE', ( #112, #117, #73, #167 ) ) ;
#27 = APPROVAL ( #95, 'UNSPECIFIED' ) ;
#28 = APPROVAL_DATE_TIME ( #111, #102 ) ;
#29 = ADVANCED_FACE ( 'NONE', ( #104 ), #44, .F. ) ;
#30 = FACE_OUTER_BOUND ( 'NONE', #162, .T. ) ;
#31 = DATE_AND_TIME ( #137, #42 ) ;
#32 = ORIENTED_EDGE ( 'NONE', *, *, #84, .T. ) ;
#33 = CARTESIAN_POINT ( 'NONE',  ( 0.0000000000000000000, 0.0000000000000000000, 1.000000000000000000 ) ) ;
#34 = CARTESIAN_POINT ( 'NONE',  ( 0.0000000000000000000, 0.0000000000000000000, 0.0000000000000000000 ) ) ;
#35 = CARTESIAN_POINT ( 'NONE',  ( 0.0000000000000000000, 0.0000000000000000000, 0.0000000000000000000 ) ) ;
#36 = APPLICATION_CONTEXT ( 'configuration controlled 3d designs of mechanical parts and assemblies' ) ;
#37 = APPLICATION_PROTOCOL_DEFINITION ( 'international standard', 'config_control_design', 1994, #36 ) ;
#38 = PRODUCT ( '34599_36937', '34599_36937', '', ( #128 ) ) ;
#39 = LINE ( 'NONE', #83, #19 ) ;
#40 = ORGANIZATION ( 'UNSPECIFIED', 'UNSPECIFIED', '' ) ;
#41 = PERSON_AND_ORGANIZATION ( #23, #40 ) ;
#42 = LOCAL_TIME ( 9, 19, 6.000000000000000000, #96 ) ;
#43 = EDGE_LOOP ( 'NONE', ( #115, #60 ) ) ;
#44 = PLANE ( 'NONE',  #171 ) ;
#45 = APPROVAL_DATE_TIME ( #13, #27 ) ;
#46 = CC_DESIGN_APPROVAL ( #7, ( #165 ) ) ;
#47 = DIRECTION ( 'NONE',  ( -0.0000000000000000000, -0.0000000000000000000, -1.000000000000000000 ) ) ;
#48 = APPROVAL_ROLE ( '' ) ;
#49 = CALENDAR_DATE ( 2017, 24, 8 ) ;
#50 = DIRECTION ( 'NONE',  ( 0.0000000000000000000, 0.0000000000000000000, 1.000000000000000000 ) ) ;
#51 = DESIGN_CONTEXT ( 'detailed design', #154, 'design' ) ;
#52 = DIRECTION ( 'NONE',  ( 1.000000000000000000, 0.0000000000000000000, 0.0000000000000000000 ) ) ;
#53 = DATE_TIME_ROLE ( 'classification_date' ) ;
#54 = COORDINATED_UNIVERSAL_TIME_OFFSET ( 5, 0, .BEHIND. ) ;
#55 = EDGE_CURVE ( 'NONE', #147, #12, #89, .T. ) ;
#56 = APPROVAL_PERSON_ORGANIZATION ( #88, #7, #170 ) ;
#57 = CYLINDRICAL_SURFACE ( 'NONE', #148, 25.00000000000000000 ) ;
#58 = VERTEX_POINT ( 'NONE', #2 ) ;
#59 = ADVANCED_BREP_SHAPE_REPRESENTATION ( '34599_36937', ( #90, #173 ), #24 ) ;
#60 = ORIENTED_EDGE ( 'NONE', *, *, #55, .T. ) ;
#61 = COORDINATED_UNIVERSAL_TIME_OFFSET ( 5, 0, .BEHIND. ) ;
#62 = CARTESIAN_POINT ( 'NONE',  ( 0.0000000000000000000, 0.0000000000000000000, 1.000000000000000000 ) ) ;
#63 = DIRECTION ( 'NONE',  ( 0.0000000000000000000, 0.0000000000000000000, 1.000000000000000000 ) ) ;
#64 = DIRECTION ( 'NONE',  ( 0.0000000000000000000, 0.0000000000000000000, 1.000000000000000000 ) ) ;
#65 = DIRECTION ( 'NONE',  ( -0.0000000000000000000, -0.0000000000000000000, -1.000000000000000000 ) ) ;
#66 = APPLICATION_PROTOCOL_DEFINITION ( 'international standard', 'config_control_design', 1994, #154 ) ;
#67 = APPROVAL_ROLE ( '' ) ;
#68 = APPROVAL_STATUS ( 'not_yet_approved' ) ;
#69 = PERSON_AND_ORGANIZATION ( #23, #40 ) ;
#70 = CC_DESIGN_PERSON_AND_ORGANIZATION_ASSIGNMENT ( #69, #108, ( #165 ) ) ;
#71 = SHAPE_DEFINITION_REPRESENTATION ( #159, #59 ) ;
#72 = ADVANCED_FACE ( 'NONE', ( #145 ), #150, .T. ) ;
#73 = ORIENTED_EDGE ( 'NONE', *, *, #78, .T. ) ;
#74 = DIRECTION ( 'NONE',  ( 0.0000000000000000000, 0.0000000000000000000, 1.000000000000000000 ) ) ;
#75 = DIRECTION ( 'NONE',  ( 1.000000000000000000, 0.0000000000000000000, 0.0000000000000000000 ) ) ;
#76 = CIRCLE ( 'NONE', #161, 25.00000000000000000 ) ;
#77 = CARTESIAN_POINT ( 'NONE',  ( -25.00000000000000000, 0.0000000000000000000, 1.000000000000000000 ) ) ;
#78 = EDGE_CURVE ( 'NONE', #169, #58, #76, .T. ) ;
#79 = CARTESIAN_POINT ( 'NONE',  ( 25.00000000000000000, 3.061616997868383000E-015, 0.0000000000000000000 ) ) ;
#80 = ORIENTED_EDGE ( 'NONE', *, *, #146, .T. ) ;
#81 = CARTESIAN_POINT ( 'NONE',  ( 0.0000000000000000000, 0.0000000000000000000, 1.000000000000000000 ) ) ;
#82 = CC_DESIGN_PERSON_AND_ORGANIZATION_ASSIGNMENT ( #15, #129, ( #165 ) ) ;
#83 = CARTESIAN_POINT ( 'NONE',  ( 25.00000000000000000, 3.061616997868383000E-015, 1.000000000000000000 ) ) ;
#84 = EDGE_CURVE ( 'NONE', #58, #169, #107, .T. ) ;
#85 = EDGE_CURVE ( 'NONE', #12, #147, #168, .T. ) ;
#86 = APPROVAL_PERSON_ORGANIZATION ( #174, #27, #48 ) ;
#87 = FACE_OUTER_BOUND ( 'NONE', #26, .T. ) ;
#88 = PERSON_AND_ORGANIZATION ( #23, #40 ) ;
#89 = CIRCLE ( 'NONE', #105, 25.00000000000000000 ) ;
#90 = MANIFOLD_SOLID_BREP ( 'Boss-Extrude1', #3 ) ;
#91 =( LENGTH_UNIT ( ) NAMED_UNIT ( * ) SI_UNIT ( .MILLI., .METRE. ) );
#92 = COORDINATED_UNIVERSAL_TIME_OFFSET ( 5, 0, .BEHIND. ) ;
#93 = ORIENTED_EDGE ( 'NONE', *, *, #78, .F. ) ;
#94 = DIRECTION ( 'NONE',  ( 1.000000000000000000, 0.0000000000000000000, 0.0000000000000000000 ) ) ;
#95 = APPROVAL_STATUS ( 'not_yet_approved' ) ;
#96 = COORDINATED_UNIVERSAL_TIME_OFFSET ( 5, 0, .BEHIND. ) ;
#97 = CARTESIAN_POINT ( 'NONE',  ( 25.00000000000000000, 3.061616997868383000E-015, 1.000000000000000000 ) ) ;
#98 = LINE ( 'NONE', #140, #156 ) ;
#99 = DATE_AND_TIME ( #155, #149 ) ;
#100 = SECURITY_CLASSIFICATION ( '', '', #20 ) ;
#101 = ADVANCED_FACE ( 'NONE', ( #30 ), #57, .T. ) ;
#102 = APPROVAL ( #68, 'UNSPECIFIED' ) ;
#103 = CALENDAR_DATE ( 2017, 24, 8 ) ;
#104 = FACE_OUTER_BOUND ( 'NONE', #131, .T. ) ;
#105 = AXIS2_PLACEMENT_3D ( 'NONE', #62, #153, #75 ) ;
#106 = DIRECTION ( 'NONE',  ( 1.000000000000000000, 0.0000000000000000000, -0.0000000000000000000 ) ) ;
#107 = CIRCLE ( 'NONE', #160, 25.00000000000000000 ) ;
#108 = PERSON_AND_ORGANIZATION_ROLE ( 'creator' ) ;
#109 =( NAMED_UNIT ( * ) SI_UNIT ( $, .STERADIAN. ) SOLID_ANGLE_UNIT ( ) );
#110 = APPROVAL_STATUS ( 'not_yet_approved' ) ;
#111 = DATE_AND_TIME ( #103, #134 ) ;
#112 = ORIENTED_EDGE ( 'NONE', *, *, #55, .F. ) ;
#113 = CC_DESIGN_PERSON_AND_ORGANIZATION_ASSIGNMENT ( #122, #127, ( #100 ) ) ;
#114 = DIRECTION ( 'NONE',  ( -1.000000000000000000, 0.0000000000000000000, 0.0000000000000000000 ) ) ;
#115 = ORIENTED_EDGE ( 'NONE', *, *, #85, .T. ) ;
#116 = DATE_AND_TIME ( #49, #130 ) ;
#117 = ORIENTED_EDGE ( 'NONE', *, *, #133, .T. ) ;
#118 = ORIENTED_EDGE ( 'NONE', *, *, #84, .F. ) ;
#119 = CARTESIAN_POINT ( 'NONE',  ( 0.0000000000000000000, 0.0000000000000000000, 0.0000000000000000000 ) ) ;
#120 = CARTESIAN_POINT ( 'NONE',  ( 0.0000000000000000000, 0.0000000000000000000, 1.000000000000000000 ) ) ;
#121 = DIRECTION ( 'NONE',  ( 0.0000000000000000000, 0.0000000000000000000, 1.000000000000000000 ) ) ;
#122 = PERSON_AND_ORGANIZATION ( #23, #40 ) ;
#123 = ORIENTED_EDGE ( 'NONE', *, *, #85, .F. ) ;
#124 = PERSON_AND_ORGANIZATION ( #23, #40 ) ;
#125 = APPROVAL_PERSON_ORGANIZATION ( #124, #102, #67 ) ;
#126 = PERSON_AND_ORGANIZATION_ROLE ( 'design_owner' ) ;
#127 = PERSON_AND_ORGANIZATION_ROLE ( 'classification_officer' ) ;
#128 = MECHANICAL_CONTEXT ( 'NONE', #36, 'mechanical' ) ;
#129 = PERSON_AND_ORGANIZATION_ROLE ( 'design_supplier' ) ;
#130 = LOCAL_TIME ( 9, 19, 6.000000000000000000, #144 ) ;
#131 = EDGE_LOOP ( 'NONE', ( #118, #93 ) ) ;
#132 = ORIENTED_EDGE ( 'NONE', *, *, #133, .F. ) ;
#133 = EDGE_CURVE ( 'NONE', #147, #169, #39, .T. ) ;
#134 = LOCAL_TIME ( 9, 19, 6.000000000000000000, #92 ) ;
#135 = CARTESIAN_POINT ( 'NONE',  ( 0.0000000000000000000, 0.0000000000000000000, 0.0000000000000000000 ) ) ;
#136 = DIRECTION ( 'NONE',  ( -1.000000000000000000, 0.0000000000000000000, 0.0000000000000000000 ) ) ;
#137 = CALENDAR_DATE ( 2017, 24, 8 ) ;
#138 = CYLINDRICAL_SURFACE ( 'NONE', #143, 25.00000000000000000 ) ;
#139 = DIRECTION ( 'NONE',  ( -0.0000000000000000000, -0.0000000000000000000, -1.000000000000000000 ) ) ;
#140 = CARTESIAN_POINT ( 'NONE',  ( -25.00000000000000000, 0.0000000000000000000, 1.000000000000000000 ) ) ;
#141 = UNCERTAINTY_MEASURE_WITH_UNIT (LENGTH_MEASURE( 1.000000000000000100E-005 ), #91, 'distance_accuracy_value', 'NONE');
#142 = DIRECTION ( 'NONE',  ( -0.0000000000000000000, -0.0000000000000000000, -1.000000000000000000 ) ) ;
#143 = AXIS2_PLACEMENT_3D ( 'NONE', #33, #47, #136 ) ;
#144 = COORDINATED_UNIVERSAL_TIME_OFFSET ( 5, 0, .BEHIND. ) ;
#145 = FACE_OUTER_BOUND ( 'NONE', #43, .T. ) ;
#146 = EDGE_CURVE ( 'NONE', #12, #58, #98, .T. ) ;
#147 = VERTEX_POINT ( 'NONE', #97 ) ;
#148 = AXIS2_PLACEMENT_3D ( 'NONE', #81, #142, #114 ) ;
#149 = LOCAL_TIME ( 9, 19, 6.000000000000000000, #54 ) ;
#150 = PLANE ( 'NONE',  #152 ) ;
#151 = CC_DESIGN_PERSON_AND_ORGANIZATION_ASSIGNMENT ( #164, #126, ( #38 ) ) ;
#152 = AXIS2_PLACEMENT_3D ( 'NONE', #163, #74, #106 ) ;
#153 = DIRECTION ( 'NONE',  ( 0.0000000000000000000, 0.0000000000000000000, 1.000000000000000000 ) ) ;
#154 = APPLICATION_CONTEXT ( 'configuration controlled 3d designs of mechanical parts and assemblies' ) ;
#155 = CALENDAR_DATE ( 2017, 24, 8 ) ;
#156 = VECTOR ( 'NONE', #139, 1000.000000000000000 ) ;
#157 = DIRECTION ( 'NONE',  ( 1.000000000000000000, 0.0000000000000000000, 0.0000000000000000000 ) ) ;
#158 = DIRECTION ( 'NONE',  ( 0.0000000000000000000, 0.0000000000000000000, 1.000000000000000000 ) ) ;
#159 = PRODUCT_DEFINITION_SHAPE ( 'NONE', 'NONE',  #172 ) ;
#160 = AXIS2_PLACEMENT_3D ( 'NONE', #35, #158, #157 ) ;
#161 = AXIS2_PLACEMENT_3D ( 'NONE', #119, #64, #8 ) ;
#162 = EDGE_LOOP ( 'NONE', ( #132, #123, #80, #32 ) ) ;
#163 = CARTESIAN_POINT ( 'NONE',  ( 0.0000000000000000000, 0.0000000000000000000, 1.000000000000000000 ) ) ;
#164 = PERSON_AND_ORGANIZATION ( #23, #40 ) ;
#165 = PRODUCT_DEFINITION_FORMATION_WITH_SPECIFIED_SOURCE ( 'ANY', '', #38, .NOT_KNOWN. ) ;
#166 = DIRECTION ( 'NONE',  ( 1.000000000000000000, 0.0000000000000000000, -0.0000000000000000000 ) ) ;
#167 = ORIENTED_EDGE ( 'NONE', *, *, #146, .F. ) ;
#168 = CIRCLE ( 'NONE', #4, 25.00000000000000000 ) ;
#169 = VERTEX_POINT ( 'NONE', #79 ) ;
#170 = APPROVAL_ROLE ( '' ) ;
#171 = AXIS2_PLACEMENT_3D ( 'NONE', #135, #63, #166 ) ;
#172 = PRODUCT_DEFINITION ( 'UNKNOWN', '', #165, #51 ) ;
#173 = AXIS2_PLACEMENT_3D ( 'NONE', #34, #50, #94 ) ;
#174 = PERSON_AND_ORGANIZATION ( #23, #40 ) ;
#175 = CC_DESIGN_APPROVAL ( #27, ( #100 ) ) ;
ENDSEC;
END-ISO-10303-21;
