ISO-10303-21;
HEADER;
FILE_DESCRIPTION (( 'STEP AP203' ),
    '1' );
FILE_NAME ('Web Model 12667_12667.step',
    '2019-04-09T18:54:43',
    ( '' ),
    ( '' ),
    'SwSTEP 2.0',
    'SolidWorks 2018',
    '' );
FILE_SCHEMA (( 'CONFIG_CONTROL_DESIGN' ));
ENDSEC;

DATA;
#1 = DIRECTION ( 'NONE',  ( -0.0000000000000000000, -0.0000000000000000000, -1.000000000000000000 ) ) ;
#2 = PERSON_AND_ORGANIZATION ( #157, #56 ) ;
#3 = CC_DESIGN_SECURITY_CLASSIFICATION ( #43, ( #119 ) ) ;
#4 = DIRECTION ( 'NONE',  ( 1.000000000000000000, 0.0000000000000000000, 0.0000000000000000000 ) ) ;
#5 =( NAMED_UNIT ( * ) PLANE_ANGLE_UNIT ( ) SI_UNIT ( $, .RADIAN. ) );
#6 = LOCAL_TIME ( 14, 54, 43.00000000000000000, #118 ) ;
#7 = PERSON_AND_ORGANIZATION_ROLE ( 'creator' ) ;
#8 = EDGE_LOOP ( 'NONE', ( #108, #104 ) ) ;
#9 = ADVANCED_BREP_SHAPE_REPRESENTATION ( 'Web Model 12667_12667', ( #117, #123 ), #147 ) ;
#10 = VERTEX_POINT ( 'NONE', #125 ) ;
#11 = CARTESIAN_POINT ( 'NONE',  ( 0.0000000000000000000, 0.0000000000000000000, 0.2500000000000000000 ) ) ;
#12 = AXIS2_PLACEMENT_3D ( 'NONE', #162, #17, #63 ) ;
#13 = APPROVAL_DATE_TIME ( #81, #126 ) ;
#14 = DIRECTION ( 'NONE',  ( -1.000000000000000000, 0.0000000000000000000, 0.0000000000000000000 ) ) ;
#15 = AXIS2_PLACEMENT_3D ( 'NONE', #149, #113, #70 ) ;
#16 = PERSON_AND_ORGANIZATION_ROLE ( 'design_supplier' ) ;
#17 = DIRECTION ( 'NONE',  ( 0.0000000000000000000, 0.0000000000000000000, 1.000000000000000000 ) ) ;
#18 = DESIGN_CONTEXT ( 'detailed design', #140, 'design' ) ;
#19 = CALENDAR_DATE ( 2019, 9, 4 ) ;
#20 = ORIENTED_EDGE ( 'NONE', *, *, #107, .F. ) ;
#21 = CC_DESIGN_PERSON_AND_ORGANIZATION_ASSIGNMENT ( #91, #60, ( #129 ) ) ;
#22 = ADVANCED_FACE ( 'NONE', ( #146 ), #32, .T. ) ;
#23 = LOCAL_TIME ( 14, 54, 43.00000000000000000, #27 ) ;
#24 = EDGE_LOOP ( 'NONE', ( #20, #156, #67, #161 ) ) ;
#25 = CC_DESIGN_APPROVAL ( #89, ( #43 ) ) ;
#26 = VERTEX_POINT ( 'NONE', #31 ) ;
#27 = COORDINATED_UNIVERSAL_TIME_OFFSET ( 5, 0, .BEHIND. ) ;
#28 = ORIENTED_EDGE ( 'NONE', *, *, #36, .F. ) ;
#29 = PLANE ( 'NONE',  #12 ) ;
#30 = AXIS2_PLACEMENT_3D ( 'NONE', #80, #175, #92 ) ;
#31 = CARTESIAN_POINT ( 'NONE',  ( -4.000000000000000000, 0.0000000000000000000, 0.2500000000000000000 ) ) ;
#32 = CYLINDRICAL_SURFACE ( 'NONE', #105, 4.000000000000000000 ) ;
#33 = SECURITY_CLASSIFICATION_LEVEL ( 'unclassified' ) ;
#34 = CC_DESIGN_PERSON_AND_ORGANIZATION_ASSIGNMENT ( #152, #116, ( #119 ) ) ;
#35 = LOCAL_TIME ( 14, 54, 43.00000000000000000, #71 ) ;
#36 = EDGE_CURVE ( 'NONE', #121, #10, #174, .T. ) ;
#37 = CIRCLE ( 'NONE', #46, 4.000000000000000000 ) ;
#38 = CC_DESIGN_PERSON_AND_ORGANIZATION_ASSIGNMENT ( #2, #7, ( #114 ) ) ;
#39 = PRODUCT_RELATED_PRODUCT_CATEGORY ( 'detail', '', ( #129 ) ) ;
#40 = APPROVAL_PERSON_ORGANIZATION ( #130, #89, #88 ) ;
#41 = CIRCLE ( 'NONE', #151, 4.000000000000000000 ) ;
#42 = DIRECTION ( 'NONE',  ( 1.000000000000000000, 0.0000000000000000000, 0.0000000000000000000 ) ) ;
#43 = SECURITY_CLASSIFICATION ( '', '', #33 ) ;
#44 = CALENDAR_DATE ( 2019, 9, 4 ) ;
#45 = CARTESIAN_POINT ( 'NONE',  ( 0.0000000000000000000, 0.0000000000000000000, 0.2500000000000000000 ) ) ;
#46 = AXIS2_PLACEMENT_3D ( 'NONE', #11, #166, #110 ) ;
#47 = CARTESIAN_POINT ( 'NONE',  ( 4.000000000000000000, 4.898587196589412829E-16, 0.2500000000000000000 ) ) ;
#48 = CARTESIAN_POINT ( 'NONE',  ( 0.0000000000000000000, 0.0000000000000000000, -0.2500000000000000000 ) ) ;
#49 = COORDINATED_UNIVERSAL_TIME_OFFSET ( 5, 0, .BEHIND. ) ;
#50 = APPROVAL_ROLE ( '' ) ;
#51 = CALENDAR_DATE ( 2019, 9, 4 ) ;
#52 = CC_DESIGN_PERSON_AND_ORGANIZATION_ASSIGNMENT ( #78, #16, ( #119 ) ) ;
#53 = EDGE_LOOP ( 'NONE', ( #160, #170 ) ) ;
#54 = APPROVAL_DATE_TIME ( #164, #89 ) ;
#55 = EDGE_CURVE ( 'NONE', #26, #96, #98, .T. ) ;
#56 = ORGANIZATION ( 'UNSPECIFIED', 'UNSPECIFIED', '' ) ;
#57 = DATE_AND_TIME ( #77, #35 ) ;
#58 = CARTESIAN_POINT ( 'NONE',  ( 4.000000000000000000, 4.898587196589412829E-16, 0.2500000000000000000 ) ) ;
#59 = CLOSED_SHELL ( 'NONE', ( #22, #144, #171, #172 ) ) ;
#60 = PERSON_AND_ORGANIZATION_ROLE ( 'design_owner' ) ;
#61 = ORIENTED_EDGE ( 'NONE', *, *, #109, .F. ) ;
#62 = DATE_TIME_ROLE ( 'creation_date' ) ;
#63 = DIRECTION ( 'NONE',  ( 1.000000000000000000, 0.0000000000000000000, -0.0000000000000000000 ) ) ;
#64 = AXIS2_PLACEMENT_3D ( 'NONE', #45, #94, #42 ) ;
#65 = FACE_OUTER_BOUND ( 'NONE', #53, .T. ) ;
#66 = DATE_AND_TIME ( #44, #127 ) ;
#67 = ORIENTED_EDGE ( 'NONE', *, *, #106, .T. ) ;
#68 = AXIS2_PLACEMENT_3D ( 'NONE', #163, #1, #14 ) ;
#69 = ORIENTED_EDGE ( 'NONE', *, *, #99, .T. ) ;
#70 = DIRECTION ( 'NONE',  ( 1.000000000000000000, 0.0000000000000000000, -0.0000000000000000000 ) ) ;
#71 = COORDINATED_UNIVERSAL_TIME_OFFSET ( 5, 0, .BEHIND. ) ;
#72 = CARTESIAN_POINT ( 'NONE',  ( -4.000000000000000000, 0.0000000000000000000, -0.2500000000000000000 ) ) ;
#73 = FACE_OUTER_BOUND ( 'NONE', #8, .T. ) ;
#74 = MECHANICAL_CONTEXT ( 'NONE', #158, 'mechanical' ) ;
#75 = CYLINDRICAL_SURFACE ( 'NONE', #68, 4.000000000000000000 ) ;
#76 =( NAMED_UNIT ( * ) SI_UNIT ( $, .STERADIAN. ) SOLID_ANGLE_UNIT ( ) );
#77 = CALENDAR_DATE ( 2019, 9, 4 ) ;
#78 = PERSON_AND_ORGANIZATION ( #157, #56 ) ;
#79 = EDGE_LOOP ( 'NONE', ( #28, #61, #122, #69 ) ) ;
#80 = CARTESIAN_POINT ( 'NONE',  ( 0.0000000000000000000, 0.0000000000000000000, -0.2500000000000000000 ) ) ;
#81 = DATE_AND_TIME ( #51, #155 ) ;
#82 = DIRECTION ( 'NONE',  ( 0.0000000000000000000, 0.0000000000000000000, 1.000000000000000000 ) ) ;
#83 = DIRECTION ( 'NONE',  ( 0.0000000000000000000, 0.0000000000000000000, 1.000000000000000000 ) ) ;
#84 = PLANE ( 'NONE',  #15 ) ;
#85 = APPLICATION_PROTOCOL_DEFINITION ( 'international standard', 'config_control_design', 1994, #140 ) ;
#86 = PERSON_AND_ORGANIZATION ( #157, #56 ) ;
#87 = APPROVAL_STATUS ( 'not_yet_approved' ) ;
#88 = APPROVAL_ROLE ( '' ) ;
#89 = APPROVAL ( #150, 'UNSPECIFIED' ) ;
#90 = APPROVAL ( #141, 'UNSPECIFIED' ) ;
#91 = PERSON_AND_ORGANIZATION ( #157, #56 ) ;
#92 = DIRECTION ( 'NONE',  ( 1.000000000000000000, 0.0000000000000000000, 0.0000000000000000000 ) ) ;
#93 = DIRECTION ( 'NONE',  ( -0.0000000000000000000, -0.0000000000000000000, -1.000000000000000000 ) ) ;
#94 = DIRECTION ( 'NONE',  ( 0.0000000000000000000, 0.0000000000000000000, 1.000000000000000000 ) ) ;
#95 = APPROVAL_PERSON_ORGANIZATION ( #86, #90, #50 ) ;
#96 = VERTEX_POINT ( 'NONE', #72 ) ;
#97 = DIRECTION ( 'NONE',  ( -1.000000000000000000, 0.0000000000000000000, 0.0000000000000000000 ) ) ;
#98 = LINE ( 'NONE', #135, #128 ) ;
#99 = EDGE_CURVE ( 'NONE', #96, #10, #115, .T. ) ;
#100 = APPROVAL_ROLE ( '' ) ;
#101 = PERSON_AND_ORGANIZATION_ROLE ( 'classification_officer' ) ;
#102 = CARTESIAN_POINT ( 'NONE',  ( 0.0000000000000000000, 0.0000000000000000000, 0.0000000000000000000 ) ) ;
#103 = PERSON_AND_ORGANIZATION ( #157, #56 ) ;
#104 = ORIENTED_EDGE ( 'NONE', *, *, #107, .T. ) ;
#105 = AXIS2_PLACEMENT_3D ( 'NONE', #137, #112, #97 ) ;
#106 = EDGE_CURVE ( 'NONE', #10, #96, #41, .T. ) ;
#107 = EDGE_CURVE ( 'NONE', #121, #26, #37, .T. ) ;
#108 = ORIENTED_EDGE ( 'NONE', *, *, #109, .T. ) ;
#109 = EDGE_CURVE ( 'NONE', #26, #121, #165, .T. ) ;
#110 = DIRECTION ( 'NONE',  ( 1.000000000000000000, 0.0000000000000000000, 0.0000000000000000000 ) ) ;
#111 = DIRECTION ( 'NONE',  ( 1.000000000000000000, 0.0000000000000000000, 0.0000000000000000000 ) ) ;
#112 = DIRECTION ( 'NONE',  ( -0.0000000000000000000, -0.0000000000000000000, -1.000000000000000000 ) ) ;
#113 = DIRECTION ( 'NONE',  ( 0.0000000000000000000, 0.0000000000000000000, 1.000000000000000000 ) ) ;
#114 = PRODUCT_DEFINITION ( 'UNKNOWN', '', #119, #18 ) ;
#115 = CIRCLE ( 'NONE', #30, 4.000000000000000000 ) ;
#116 = PERSON_AND_ORGANIZATION_ROLE ( 'creator' ) ;
#117 = MANIFOLD_SOLID_BREP ( 'Boss-Extrude1', #59 ) ;
#118 = COORDINATED_UNIVERSAL_TIME_OFFSET ( 5, 0, .BEHIND. ) ;
#119 = PRODUCT_DEFINITION_FORMATION_WITH_SPECIFIED_SOURCE ( 'ANY', '', #129, .NOT_KNOWN. ) ;
#120 = CALENDAR_DATE ( 2019, 9, 4 ) ;
#121 = VERTEX_POINT ( 'NONE', #58 ) ;
#122 = ORIENTED_EDGE ( 'NONE', *, *, #55, .T. ) ;
#123 = AXIS2_PLACEMENT_3D ( 'NONE', #102, #82, #4 ) ;
#124 = SHAPE_DEFINITION_REPRESENTATION ( #142, #9 ) ;
#125 = CARTESIAN_POINT ( 'NONE',  ( 4.000000000000000000, 4.898587196589412829E-16, -0.2500000000000000000 ) ) ;
#126 = APPROVAL ( #87, 'UNSPECIFIED' ) ;
#127 = LOCAL_TIME ( 14, 54, 43.00000000000000000, #49 ) ;
#128 = VECTOR ( 'NONE', #148, 1000.000000000000000 ) ;
#129 = PRODUCT ( 'Web Model 12667_12667', 'Web Model 12667_12667', '', ( #74 ) ) ;
#130 = PERSON_AND_ORGANIZATION ( #157, #56 ) ;
#131 = CC_DESIGN_DATE_AND_TIME_ASSIGNMENT ( #57, #62, ( #114 ) ) ;
#132 = APPROVAL_PERSON_ORGANIZATION ( #145, #126, #100 ) ;
#133 = FACE_OUTER_BOUND ( 'NONE', #79, .T. ) ;
#134 = CC_DESIGN_APPROVAL ( #90, ( #119 ) ) ;
#135 = CARTESIAN_POINT ( 'NONE',  ( -4.000000000000000000, 0.0000000000000000000, 0.2500000000000000000 ) ) ;
#136 = DATE_AND_TIME ( #120, #6 ) ;
#137 = CARTESIAN_POINT ( 'NONE',  ( 0.0000000000000000000, 0.0000000000000000000, 0.2500000000000000000 ) ) ;
#138 =( LENGTH_UNIT ( ) NAMED_UNIT ( * ) SI_UNIT ( .MILLI., .METRE. ) );
#139 = CC_DESIGN_PERSON_AND_ORGANIZATION_ASSIGNMENT ( #103, #101, ( #43 ) ) ;
#140 = APPLICATION_CONTEXT ( 'configuration controlled 3d designs of mechanical parts and assemblies' ) ;
#141 = APPROVAL_STATUS ( 'not_yet_approved' ) ;
#142 = PRODUCT_DEFINITION_SHAPE ( 'NONE', 'NONE',  #114 ) ;
#143 = UNCERTAINTY_MEASURE_WITH_UNIT (LENGTH_MEASURE( 1.000000000000000082E-05 ), #138, 'distance_accuracy_value', 'NONE');
#144 = ADVANCED_FACE ( 'NONE', ( #133 ), #75, .T. ) ;
#145 = PERSON_AND_ORGANIZATION ( #157, #56 ) ;
#146 = FACE_OUTER_BOUND ( 'NONE', #24, .T. ) ;
#147 =( GEOMETRIC_REPRESENTATION_CONTEXT ( 3 ) GLOBAL_UNCERTAINTY_ASSIGNED_CONTEXT ( ( #143 ) ) GLOBAL_UNIT_ASSIGNED_CONTEXT ( ( #138, #5, #76 ) ) REPRESENTATION_CONTEXT ( 'NONE', 'WORKASPACE' ) );
#148 = DIRECTION ( 'NONE',  ( -0.0000000000000000000, -0.0000000000000000000, -1.000000000000000000 ) ) ;
#149 = CARTESIAN_POINT ( 'NONE',  ( 0.0000000000000000000, 0.0000000000000000000, 0.2500000000000000000 ) ) ;
#150 = APPROVAL_STATUS ( 'not_yet_approved' ) ;
#151 = AXIS2_PLACEMENT_3D ( 'NONE', #48, #83, #111 ) ;
#152 = PERSON_AND_ORGANIZATION ( #157, #56 ) ;
#153 = APPLICATION_PROTOCOL_DEFINITION ( 'international standard', 'config_control_design', 1994, #158 ) ;
#154 = DATE_TIME_ROLE ( 'classification_date' ) ;
#155 = LOCAL_TIME ( 14, 54, 43.00000000000000000, #159 ) ;
#156 = ORIENTED_EDGE ( 'NONE', *, *, #36, .T. ) ;
#157 = PERSON ( 'UNSPECIFIED', 'UNSPECIFIED', 'UNSPECIFIED', ('UNSPECIFIED'), ('UNSPECIFIED'), ('UNSPECIFIED') ) ;
#158 = APPLICATION_CONTEXT ( 'configuration controlled 3d designs of mechanical parts and assemblies' ) ;
#159 = COORDINATED_UNIVERSAL_TIME_OFFSET ( 5, 0, .BEHIND. ) ;
#160 = ORIENTED_EDGE ( 'NONE', *, *, #99, .F. ) ;
#161 = ORIENTED_EDGE ( 'NONE', *, *, #55, .F. ) ;
#162 = CARTESIAN_POINT ( 'NONE',  ( 0.0000000000000000000, 0.0000000000000000000, -0.2500000000000000000 ) ) ;
#163 = CARTESIAN_POINT ( 'NONE',  ( 0.0000000000000000000, 0.0000000000000000000, 0.2500000000000000000 ) ) ;
#164 = DATE_AND_TIME ( #19, #23 ) ;
#165 = CIRCLE ( 'NONE', #64, 4.000000000000000000 ) ;
#166 = DIRECTION ( 'NONE',  ( 0.0000000000000000000, 0.0000000000000000000, 1.000000000000000000 ) ) ;
#167 = APPROVAL_DATE_TIME ( #136, #90 ) ;
#168 = VECTOR ( 'NONE', #93, 1000.000000000000000 ) ;
#169 = CC_DESIGN_APPROVAL ( #126, ( #114 ) ) ;
#170 = ORIENTED_EDGE ( 'NONE', *, *, #106, .F. ) ;
#171 = ADVANCED_FACE ( 'NONE', ( #73 ), #84, .T. ) ;
#172 = ADVANCED_FACE ( 'NONE', ( #65 ), #29, .F. ) ;
#173 = CC_DESIGN_DATE_AND_TIME_ASSIGNMENT ( #66, #154, ( #43 ) ) ;
#174 = LINE ( 'NONE', #47, #168 ) ;
#175 = DIRECTION ( 'NONE',  ( 0.0000000000000000000, 0.0000000000000000000, 1.000000000000000000 ) ) ;
ENDSEC;
END-ISO-10303-21;
