ISO-10303-21;
HEADER;
FILE_DESCRIPTION (( 'STEP AP203' ),
    '1' );
FILE_NAME ('Web Model 68157_20771.step',
    '2022-03-15T19:19:00',
    ( '' ),
    ( '' ),
    'SwSTEP 2.0',
    'SolidWorks 2021',
    '' );
FILE_SCHEMA (( 'CONFIG_CONTROL_DESIGN' ));
ENDSEC;

DATA;
#1 = CC_DESIGN_APPROVAL ( #125, ( #164 ) ) ;
#2 = ORIENTED_EDGE ( 'NONE', *, *, #19, .F. ) ;
#3 = AXIS2_PLACEMENT_3D ( 'NONE', #6, #56, #97 ) ;
#4 = APPROVAL ( #75, 'UNSPECIFIED' ) ;
#5 = DIRECTION ( 'NONE',  ( 0.000000000000000000, 0.000000000000000000, 1.000000000000000000 ) ) ;
#6 = CARTESIAN_POINT ( 'NONE',  ( 0.000000000000000000, 0.000000000000000000, 0.000000000000000000 ) ) ;
#7 = CARTESIAN_POINT ( 'NONE',  ( 0.000000000000000000, 0.000000000000000000, 1.000000000000000000 ) ) ;
#8 = DIRECTION ( 'NONE',  ( -1.000000000000000000, 0.000000000000000000, 0.000000000000000000 ) ) ;
#9 = ORIENTED_EDGE ( 'NONE', *, *, #127, .F. ) ;
#10 = CIRCLE ( 'NONE', #126, 6.349999999999999645 ) ;
#11 = PERSON_AND_ORGANIZATION_ROLE ( 'design_owner' ) ;
#12 = ADVANCED_BREP_SHAPE_REPRESENTATION ( 'Web Model 68157_20771', ( #41, #26 ), #100 ) ;
#13 = COORDINATED_UNIVERSAL_TIME_OFFSET ( 5, 0, .BEHIND. ) ;
#14 = PERSON_AND_ORGANIZATION ( #163, #151 ) ;
#15 = ORIENTED_EDGE ( 'NONE', *, *, #16, .T. ) ;
#16 = EDGE_CURVE ( 'NONE', #130, #115, #10, .T. ) ;
#17 = CC_DESIGN_APPROVAL ( #162, ( #166 ) ) ;
#18 = DIRECTION ( 'NONE',  ( 0.000000000000000000, 0.000000000000000000, 1.000000000000000000 ) ) ;
#19 = EDGE_CURVE ( 'NONE', #130, #55, #153, .T. ) ;
#20 = VERTEX_POINT ( 'NONE', #87 ) ;
#21 = DIRECTION ( 'NONE',  ( 0.000000000000000000, 0.000000000000000000, 1.000000000000000000 ) ) ;
#22 = PERSON_AND_ORGANIZATION ( #163, #151 ) ;
#23 = SECURITY_CLASSIFICATION ( '', '', #106 ) ;
#24 = DATE_AND_TIME ( #91, #76 ) ;
#25 = DATE_TIME_ROLE ( 'classification_date' ) ;
#26 = AXIS2_PLACEMENT_3D ( 'NONE', #117, #50, #161 ) ;
#27 = AXIS2_PLACEMENT_3D ( 'NONE', #7, #21, #171 ) ;
#28 = DIRECTION ( 'NONE',  ( -0.000000000000000000, -0.000000000000000000, -1.000000000000000000 ) ) ;
#29 = FACE_OUTER_BOUND ( 'NONE', #165, .T. ) ;
#30 = CIRCLE ( 'NONE', #120, 6.349999999999999645 ) ;
#31 = FACE_OUTER_BOUND ( 'NONE', #81, .T. ) ;
#32 = APPROVAL_DATE_TIME ( #122, #4 ) ;
#33 = CIRCLE ( 'NONE', #27, 6.349999999999999645 ) ;
#34 = APPROVAL_ROLE ( '' ) ;
#35 = DATE_AND_TIME ( #103, #147 ) ;
#36 = AXIS2_PLACEMENT_3D ( 'NONE', #142, #5, #170 ) ;
#37 = ORIENTED_EDGE ( 'NONE', *, *, #127, .T. ) ;
#38 = ADVANCED_FACE ( 'NONE', ( #31 ), #112, .T. ) ;
#39 = APPROVAL_PERSON_ORGANIZATION ( #22, #4, #159 ) ;
#40 = CARTESIAN_POINT ( 'NONE',  ( 6.349999999999999645, 7.776507174585692163E-16, 0.000000000000000000 ) ) ;
#41 = MANIFOLD_SOLID_BREP ( 'Boss-Extrude1', #111 ) ;
#42 = DIRECTION ( 'NONE',  ( 0.000000000000000000, 0.000000000000000000, 1.000000000000000000 ) ) ;
#43 = EDGE_CURVE ( 'NONE', #115, #130, #33, .T. ) ;
#44 = CARTESIAN_POINT ( 'NONE',  ( -6.349999999999999645, 0.000000000000000000, 1.000000000000000000 ) ) ;
#45 = VECTOR ( 'NONE', #28, 1000.000000000000000 ) ;
#46 = LINE ( 'NONE', #101, #45 ) ;
#47 = DATE_AND_TIME ( #136, #123 ) ;
#48 = APPLICATION_CONTEXT ( 'configuration controlled 3d designs of mechanical parts and assemblies' ) ;
#49 = MECHANICAL_CONTEXT ( 'NONE', #48, 'mechanical' ) ;
#50 = DIRECTION ( 'NONE',  ( 0.000000000000000000, 0.000000000000000000, 1.000000000000000000 ) ) ;
#51 = APPROVAL_ROLE ( '' ) ;
#52 = APPROVAL_PERSON_ORGANIZATION ( #65, #125, #34 ) ;
#53 = ORIENTED_EDGE ( 'NONE', *, *, #43, .T. ) ;
#54 = PRODUCT ( 'Web Model 68157_20771', 'Web Model 68157_20771', '', ( #49 ) ) ;
#55 = VERTEX_POINT ( 'NONE', #40 ) ;
#56 = DIRECTION ( 'NONE',  ( 0.000000000000000000, 0.000000000000000000, 1.000000000000000000 ) ) ;
#57 = FACE_OUTER_BOUND ( 'NONE', #152, .T. ) ;
#58 = CARTESIAN_POINT ( 'NONE',  ( 6.349999999999999645, 7.776507174585692163E-16, 1.000000000000000000 ) ) ;
#59 = CARTESIAN_POINT ( 'NONE',  ( 0.000000000000000000, 0.000000000000000000, 1.000000000000000000 ) ) ;
#60 = PERSON_AND_ORGANIZATION_ROLE ( 'design_supplier' ) ;
#61 = CC_DESIGN_PERSON_AND_ORGANIZATION_ASSIGNMENT ( #14, #11, ( #54 ) ) ;
#62 = APPLICATION_PROTOCOL_DEFINITION ( 'international standard', 'config_control_design', 1994, #48 ) ;
#63 = DESIGN_CONTEXT ( 'detailed design', #114, 'design' ) ;
#64 = PERSON_AND_ORGANIZATION ( #163, #151 ) ;
#65 = PERSON_AND_ORGANIZATION ( #163, #151 ) ;
#66 = ADVANCED_FACE ( 'NONE', ( #155 ), #154, .T. ) ;
#67 = COORDINATED_UNIVERSAL_TIME_OFFSET ( 5, 0, .BEHIND. ) ;
#68 = LOCAL_TIME ( 15, 19, 0.000000000000000000, #135 ) ;
#69 = VECTOR ( 'NONE', #99, 1000.000000000000000 ) ;
#70 = CARTESIAN_POINT ( 'NONE',  ( 0.000000000000000000, 0.000000000000000000, 0.000000000000000000 ) ) ;
#71 = EDGE_LOOP ( 'NONE', ( #53, #15 ) ) ;
#72 = CC_DESIGN_PERSON_AND_ORGANIZATION_ASSIGNMENT ( #149, #174, ( #23 ) ) ;
#73 =( NAMED_UNIT ( * ) SI_UNIT ( $, .STERADIAN. ) SOLID_ANGLE_UNIT ( ) );
#74 = ORIENTED_EDGE ( 'NONE', *, *, #157, .F. ) ;
#75 = APPROVAL_STATUS ( 'not_yet_approved' ) ;
#76 = LOCAL_TIME ( 15, 19, 0.000000000000000000, #67 ) ;
#77 = DATE_AND_TIME ( #160, #116 ) ;
#78 = CALENDAR_DATE ( 2022, 15, 3 ) ;
#79 = ADVANCED_FACE ( 'NONE', ( #57 ), #131, .F. ) ;
#80 = APPROVAL_DATE_TIME ( #35, #162 ) ;
#81 = EDGE_LOOP ( 'NONE', ( #108, #140, #37, #124 ) ) ;
#82 = PRODUCT_RELATED_PRODUCT_CATEGORY ( 'detail', '', ( #54 ) ) ;
#83 = CYLINDRICAL_SURFACE ( 'NONE', #138, 6.349999999999999645 ) ;
#84 = EDGE_CURVE ( 'NONE', #115, #20, #46, .T. ) ;
#85 = DIRECTION ( 'NONE',  ( -0.000000000000000000, -0.000000000000000000, -1.000000000000000000 ) ) ;
#86 =( LENGTH_UNIT ( ) NAMED_UNIT ( * ) SI_UNIT ( .MILLI., .METRE. ) );
#87 = CARTESIAN_POINT ( 'NONE',  ( -6.349999999999999645, 0.000000000000000000, 0.000000000000000000 ) ) ;
#88 = PERSON_AND_ORGANIZATION ( #163, #151 ) ;
#89 = CC_DESIGN_SECURITY_CLASSIFICATION ( #23, ( #164 ) ) ;
#90 = SHAPE_DEFINITION_REPRESENTATION ( #93, #12 ) ;
#91 = CALENDAR_DATE ( 2022, 15, 3 ) ;
#92 = DATE_TIME_ROLE ( 'creation_date' ) ;
#93 = PRODUCT_DEFINITION_SHAPE ( 'NONE', 'NONE',  #166 ) ;
#94 = AXIS2_PLACEMENT_3D ( 'NONE', #59, #144, #156 ) ;
#95 = CC_DESIGN_PERSON_AND_ORGANIZATION_ASSIGNMENT ( #64, #175, ( #166 ) ) ;
#96 = ORIENTED_EDGE ( 'NONE', *, *, #43, .F. ) ;
#97 = DIRECTION ( 'NONE',  ( 1.000000000000000000, 0.000000000000000000, -0.000000000000000000 ) ) ;
#98 = CARTESIAN_POINT ( 'NONE',  ( 0.000000000000000000, 0.000000000000000000, 1.000000000000000000 ) ) ;
#99 = DIRECTION ( 'NONE',  ( -0.000000000000000000, -0.000000000000000000, -1.000000000000000000 ) ) ;
#100 =( GEOMETRIC_REPRESENTATION_CONTEXT ( 3 ) GLOBAL_UNCERTAINTY_ASSIGNED_CONTEXT ( ( #133 ) ) GLOBAL_UNIT_ASSIGNED_CONTEXT ( ( #86, #167, #73 ) ) REPRESENTATION_CONTEXT ( 'NONE', 'WORKASPACE' ) );
#101 = CARTESIAN_POINT ( 'NONE',  ( -6.349999999999999645, 0.000000000000000000, 1.000000000000000000 ) ) ;
#102 = APPLICATION_PROTOCOL_DEFINITION ( 'international standard', 'config_control_design', 1994, #114 ) ;
#103 = CALENDAR_DATE ( 2022, 15, 3 ) ;
#104 = PERSON_AND_ORGANIZATION ( #163, #151 ) ;
#105 = APPROVAL_STATUS ( 'not_yet_approved' ) ;
#106 = SECURITY_CLASSIFICATION_LEVEL ( 'unclassified' ) ;
#107 = APPROVAL_PERSON_ORGANIZATION ( #104, #162, #51 ) ;
#108 = ORIENTED_EDGE ( 'NONE', *, *, #16, .F. ) ;
#109 = ORIENTED_EDGE ( 'NONE', *, *, #84, .T. ) ;
#110 = AXIS2_PLACEMENT_3D ( 'NONE', #129, #143, #173 ) ;
#111 = CLOSED_SHELL ( 'NONE', ( #38, #118, #66, #79 ) ) ;
#112 = CYLINDRICAL_SURFACE ( 'NONE', #94, 6.349999999999999645 ) ;
#113 = DIRECTION ( 'NONE',  ( 1.000000000000000000, 0.000000000000000000, 0.000000000000000000 ) ) ;
#114 = APPLICATION_CONTEXT ( 'configuration controlled 3d designs of mechanical parts and assemblies' ) ;
#115 = VERTEX_POINT ( 'NONE', #44 ) ;
#116 = LOCAL_TIME ( 15, 19, 0.000000000000000000, #148 ) ;
#117 = CARTESIAN_POINT ( 'NONE',  ( 0.000000000000000000, 0.000000000000000000, 0.000000000000000000 ) ) ;
#118 = ADVANCED_FACE ( 'NONE', ( #29 ), #83, .T. ) ;
#119 = APPROVAL_DATE_TIME ( #24, #125 ) ;
#120 = AXIS2_PLACEMENT_3D ( 'NONE', #70, #18, #113 ) ;
#121 = COORDINATED_UNIVERSAL_TIME_OFFSET ( 5, 0, .BEHIND. ) ;
#122 = DATE_AND_TIME ( #78, #68 ) ;
#123 = LOCAL_TIME ( 15, 19, 0.000000000000000000, #121 ) ;
#124 = ORIENTED_EDGE ( 'NONE', *, *, #84, .F. ) ;
#125 = APPROVAL ( #150, 'UNSPECIFIED' ) ;
#126 = AXIS2_PLACEMENT_3D ( 'NONE', #98, #42, #169 ) ;
#127 = EDGE_CURVE ( 'NONE', #55, #20, #30, .T. ) ;
#128 = CARTESIAN_POINT ( 'NONE',  ( 6.349999999999999645, 7.776507174585692163E-16, 1.000000000000000000 ) ) ;
#129 = CARTESIAN_POINT ( 'NONE',  ( 0.000000000000000000, 0.000000000000000000, 1.000000000000000000 ) ) ;
#130 = VERTEX_POINT ( 'NONE', #128 ) ;
#131 = PLANE ( 'NONE',  #3 ) ;
#132 = CC_DESIGN_PERSON_AND_ORGANIZATION_ASSIGNMENT ( #145, #158, ( #164 ) ) ;
#133 = UNCERTAINTY_MEASURE_WITH_UNIT (LENGTH_MEASURE( 1.000000000000000082E-05 ), #86, 'distance_accuracy_value', 'NONE');
#134 = ORIENTED_EDGE ( 'NONE', *, *, #157, .T. ) ;
#135 = COORDINATED_UNIVERSAL_TIME_OFFSET ( 5, 0, .BEHIND. ) ;
#136 = CALENDAR_DATE ( 2022, 15, 3 ) ;
#137 = CC_DESIGN_DATE_AND_TIME_ASSIGNMENT ( #47, #25, ( #23 ) ) ;
#138 = AXIS2_PLACEMENT_3D ( 'NONE', #141, #85, #8 ) ;
#139 = CC_DESIGN_DATE_AND_TIME_ASSIGNMENT ( #77, #92, ( #166 ) ) ;
#140 = ORIENTED_EDGE ( 'NONE', *, *, #19, .T. ) ;
#141 = CARTESIAN_POINT ( 'NONE',  ( 0.000000000000000000, 0.000000000000000000, 1.000000000000000000 ) ) ;
#142 = CARTESIAN_POINT ( 'NONE',  ( 0.000000000000000000, 0.000000000000000000, 0.000000000000000000 ) ) ;
#143 = DIRECTION ( 'NONE',  ( 0.000000000000000000, 0.000000000000000000, 1.000000000000000000 ) ) ;
#144 = DIRECTION ( 'NONE',  ( -0.000000000000000000, -0.000000000000000000, -1.000000000000000000 ) ) ;
#145 = PERSON_AND_ORGANIZATION ( #163, #151 ) ;
#146 = CC_DESIGN_PERSON_AND_ORGANIZATION_ASSIGNMENT ( #88, #60, ( #164 ) ) ;
#147 = LOCAL_TIME ( 15, 19, 0.000000000000000000, #13 ) ;
#148 = COORDINATED_UNIVERSAL_TIME_OFFSET ( 5, 0, .BEHIND. ) ;
#149 = PERSON_AND_ORGANIZATION ( #163, #151 ) ;
#150 = APPROVAL_STATUS ( 'not_yet_approved' ) ;
#151 = ORGANIZATION ( 'UNSPECIFIED', 'UNSPECIFIED', '' ) ;
#152 = EDGE_LOOP ( 'NONE', ( #74, #9 ) ) ;
#153 = LINE ( 'NONE', #58, #69 ) ;
#154 = PLANE ( 'NONE',  #110 ) ;
#155 = FACE_OUTER_BOUND ( 'NONE', #71, .T. ) ;
#156 = DIRECTION ( 'NONE',  ( -1.000000000000000000, 0.000000000000000000, 0.000000000000000000 ) ) ;
#157 = EDGE_CURVE ( 'NONE', #20, #55, #172, .T. ) ;
#158 = PERSON_AND_ORGANIZATION_ROLE ( 'creator' ) ;
#159 = APPROVAL_ROLE ( '' ) ;
#160 = CALENDAR_DATE ( 2022, 15, 3 ) ;
#161 = DIRECTION ( 'NONE',  ( 1.000000000000000000, 0.000000000000000000, 0.000000000000000000 ) ) ;
#162 = APPROVAL ( #105, 'UNSPECIFIED' ) ;
#163 = PERSON ( 'UNSPECIFIED', 'UNSPECIFIED', 'UNSPECIFIED', ('UNSPECIFIED'), ('UNSPECIFIED'), ('UNSPECIFIED') ) ;
#164 = PRODUCT_DEFINITION_FORMATION_WITH_SPECIFIED_SOURCE ( 'ANY', '', #54, .NOT_KNOWN. ) ;
#165 = EDGE_LOOP ( 'NONE', ( #2, #96, #109, #134 ) ) ;
#166 = PRODUCT_DEFINITION ( 'UNKNOWN', '', #164, #63 ) ;
#167 =( NAMED_UNIT ( * ) PLANE_ANGLE_UNIT ( ) SI_UNIT ( $, .RADIAN. ) );
#168 = CC_DESIGN_APPROVAL ( #4, ( #23 ) ) ;
#169 = DIRECTION ( 'NONE',  ( 1.000000000000000000, 0.000000000000000000, 0.000000000000000000 ) ) ;
#170 = DIRECTION ( 'NONE',  ( 1.000000000000000000, 0.000000000000000000, 0.000000000000000000 ) ) ;
#171 = DIRECTION ( 'NONE',  ( 1.000000000000000000, 0.000000000000000000, 0.000000000000000000 ) ) ;
#172 = CIRCLE ( 'NONE', #36, 6.349999999999999645 ) ;
#173 = DIRECTION ( 'NONE',  ( 1.000000000000000000, 0.000000000000000000, -0.000000000000000000 ) ) ;
#174 = PERSON_AND_ORGANIZATION_ROLE ( 'classification_officer' ) ;
#175 = PERSON_AND_ORGANIZATION_ROLE ( 'creator' ) ;
ENDSEC;
END-ISO-10303-21;
