ISO-10303-21;
HEADER;
FILE_DESCRIPTION (( 'STEP AP214' ),
    '1' );
FILE_NAME ('4796-E0W.STEP',
    '2009-12-21T17:09:27',
    ( ' ' ),
    ( ' ' ),
    'SwSTEP 2.0',
    'SolidWorks 2009',
    '' );
FILE_SCHEMA (( 'AUTOMOTIVE_DESIGN' ));
ENDSEC;

DATA;
#1 = ADVANCED_FACE ( 'NONE', ( #78 ), #81, .F. ) ;
#2 = EDGE_CURVE ( 'NONE', #65, #26, #74, .T. ) ;
#3 = ORIENTED_EDGE ( 'NONE', *, *, #28, .F. ) ;
#4 = ORIENTED_EDGE ( 'NONE', *, *, #2, .T. ) ;
#5 = ORIENTED_EDGE ( 'NONE', *, *, #15, .F. ) ;
#6 = EDGE_LOOP ( 'NONE', ( #3, #5 ) ) ;
#7 = ADVANCED_FACE ( 'NONE', ( #75 ), #109, .T. ) ;
#8 = ORIENTED_EDGE ( 'NONE', *, *, #12, .F. ) ;
#9 = ORIENTED_EDGE ( 'NONE', *, *, #23, .F. ) ;
#10 = ORIENTED_EDGE ( 'NONE', *, *, #12, .T. ) ;
#11 = ADVANCED_FACE ( 'NONE', ( #102 ), #100, .T. ) ;
#12 = EDGE_CURVE ( 'NONE', #31, #24, #119, .T. ) ;
#13 = ORIENTED_EDGE ( 'NONE', *, *, #25, .F. ) ;
#14 = ADVANCED_FACE ( 'NONE', ( #105 ), #140, .F. ) ;
#15 = EDGE_CURVE ( 'NONE', #43, #31, #167, .T. ) ;
#16 = ORIENTED_EDGE ( 'NONE', *, *, #20, .F. ) ;
#17 = ORIENTED_EDGE ( 'NONE', *, *, #15, .T. ) ;
#18 = ORIENTED_EDGE ( 'NONE', *, *, #2, .F. ) ;
#19 = ORIENTED_EDGE ( 'NONE', *, *, #36, .F. ) ;
#20 = EDGE_CURVE ( 'NONE', #53, #66, #145, .T. ) ;
#21 = CLOSED_SHELL ( 'NONE', ( #11, #14, #55, #1, #7 ) ) ;
#22 = EDGE_LOOP ( 'NONE', ( #16, #32, #37, #39 ) ) ;
#23 = EDGE_CURVE ( 'NONE', #43, #65, #151, .T. ) ;
#24 = VERTEX_POINT ( 'NONE', #156 ) ;
#25 = EDGE_CURVE ( 'NONE', #24, #66, #169, .T. ) ;
#26 = VERTEX_POINT ( 'NONE', #137 ) ;
#27 = EDGE_CURVE ( 'NONE', #53, #26, #147, .T. ) ;
#28 = EDGE_CURVE ( 'NONE', #31, #43, #170, .T. ) ;
#29 = EDGE_LOOP ( 'NONE', ( #33, #30, #40, #13, #8 ) ) ;
#30 = ORIENTED_EDGE ( 'NONE', *, *, #23, .T. ) ;
#31 = VERTEX_POINT ( 'NONE', #204 ) ;
#32 = ORIENTED_EDGE ( 'NONE', *, *, #27, .T. ) ;
#33 = ORIENTED_EDGE ( 'NONE', *, *, #28, .T. ) ;
#34 = MANIFOLD_SOLID_BREP ( 'NONE', #21 ) ;
#35 = ORIENTED_EDGE ( 'NONE', *, *, #20, .T. ) ;
#36 = EDGE_CURVE ( 'NONE', #26, #24, #210, .T. ) ;
#37 = ORIENTED_EDGE ( 'NONE', *, *, #36, .T. ) ;
#38 = EDGE_CURVE ( 'NONE', #66, #65, #205, .T. ) ;
#39 = ORIENTED_EDGE ( 'NONE', *, *, #25, .T. ) ;
#40 = ORIENTED_EDGE ( 'NONE', *, *, #38, .F. ) ;
#41 = ORIENTED_EDGE ( 'NONE', *, *, #38, .T. ) ;
#42 = EDGE_LOOP ( 'NONE', ( #9, #17, #10, #19, #18 ) ) ;
#43 = VERTEX_POINT ( 'NONE', #173 ) ;
#44 = DIRECTION ( 'NONE',  ( 1.000000000000000000, 0.0000000000000000000, 0.0000000000000000000 ) ) ;
#45 = DIRECTION ( 'NONE',  ( 0.0000000000000000000, -0.0000000000000000000, 1.000000000000000000 ) ) ;
#46 = CARTESIAN_POINT ( 'NONE',  ( 0.0000000000000000000, 7.347880794884119700E-016, -5.352714641851661300 ) ) ;
#47 = ORIENTED_EDGE ( 'NONE', *, *, #27, .F. ) ;
#48 =( NAMED_UNIT ( * ) PLANE_ANGLE_UNIT ( ) SI_UNIT ( $, .RADIAN. ) );
#49 = STYLED_ITEM ( 'NONE', ( #76 ), #1 ) ;
#50 = EDGE_LOOP ( 'NONE', ( #47, #35, #41, #4 ) ) ;
#51 = CARTESIAN_POINT ( 'NONE',  ( 0.0000000000000000000, 0.0000000000000000000, 5.352714641851661300 ) ) ;
#52 = FILL_AREA_STYLE ('',( #71 ) ) ;
#53 = VERTEX_POINT ( 'NONE', #172 ) ;
#54 = SURFACE_STYLE_FILL_AREA ( #52 ) ;
#55 = ADVANCED_FACE ( 'NONE', ( #171 ), #213, .F. ) ;
#56 = MECHANICAL_DESIGN_GEOMETRIC_PRESENTATION_REPRESENTATION (  '', ( #58 ), #128 ) ;
#57 = PRESENTATION_LAYER_ASSIGNMENT (  '', '', ( #58 ) ) ;
#58 = STYLED_ITEM ( 'NONE', ( #59 ), #7 ) ;
#59 = PRESENTATION_STYLE_ASSIGNMENT (( #60 ) ) ;
#60 = SURFACE_STYLE_USAGE ( .BOTH. , #61 ) ;
#61 = SURFACE_SIDE_STYLE ('',( #82 ) ) ;
#62 =( LENGTH_UNIT ( ) NAMED_UNIT ( * ) SI_UNIT ( .MILLI., .METRE. ) );
#63 =( GEOMETRIC_REPRESENTATION_CONTEXT ( 3 ) GLOBAL_UNCERTAINTY_ASSIGNED_CONTEXT ( ( #67 ) ) GLOBAL_UNIT_ASSIGNED_CONTEXT ( ( #62, #48, #79 ) ) REPRESENTATION_CONTEXT ( 'NONE', 'WORKASPACE' ) );
#64 =( NAMED_UNIT ( * ) PLANE_ANGLE_UNIT ( ) SI_UNIT ( $, .RADIAN. ) );
#65 = VERTEX_POINT ( 'NONE', #225 ) ;
#66 = VERTEX_POINT ( 'NONE', #215 ) ;
#67 = UNCERTAINTY_MEASURE_WITH_UNIT (LENGTH_MEASURE( 1.000000000000000100E-005 ), #62, 'distance_accuracy_value', 'NONE');
#68 =( LENGTH_UNIT ( ) NAMED_UNIT ( * ) SI_UNIT ( .MILLI., .METRE. ) );
#69 = MECHANICAL_DESIGN_GEOMETRIC_PRESENTATION_REPRESENTATION (  '', ( #49 ), #63 ) ;
#70 =( LENGTH_UNIT ( ) NAMED_UNIT ( * ) SI_UNIT ( .MILLI., .METRE. ) );
#71 = FILL_AREA_STYLE_COLOUR ( '', #88 ) ;
#72 = SURFACE_STYLE_USAGE ( .BOTH. , #89 ) ;
#73 = AXIS2_PLACEMENT_3D ( 'NONE', #51, #87, #86 ) ;
#74 = CIRCLE ( 'NONE', #73, 25.39999999999999900 ) ;
#75 = FACE_OUTER_BOUND ( 'NONE', #42, .T. ) ;
#76 = PRESENTATION_STYLE_ASSIGNMENT (( #72 ) ) ;
#77 = PRESENTATION_LAYER_ASSIGNMENT (  '', '', ( #49 ) ) ;
#78 = FACE_OUTER_BOUND ( 'NONE', #6, .T. ) ;
#79 =( NAMED_UNIT ( * ) SI_UNIT ( $, .STERADIAN. ) SOLID_ANGLE_UNIT ( ) );
#80 = AXIS2_PLACEMENT_3D ( 'NONE', #46, #45, #44 ) ;
#81 = PLANE ( 'NONE',  #80 ) ;
#82 = SURFACE_STYLE_FILL_AREA ( #83 ) ;
#83 = FILL_AREA_STYLE ('',( #84 ) ) ;
#84 = FILL_AREA_STYLE_COLOUR ( '', #85 ) ;
#85 = COLOUR_RGB ( '',0.9568627450980391500, 0.9490196078431372100, 0.9607843137254902200 ) ;
#86 = DIRECTION ( 'NONE',  ( 1.000000000000000000, 0.0000000000000000000, 0.0000000000000000000 ) ) ;
#87 = DIRECTION ( 'NONE',  ( -0.0000000000000000000, -0.0000000000000000000, 1.000000000000000000 ) ) ;
#88 = COLOUR_RGB ( '',0.9568627450980391500, 0.9490196078431372100, 0.9607843137254902200 ) ;
#89 = SURFACE_SIDE_STYLE ('',( #54 ) ) ;
#90 = DIRECTION ( 'NONE',  ( -1.000000000000000000, 1.224606353822377300E-016, 0.0000000000000000000 ) ) ;
#91 =( NAMED_UNIT ( * ) PLANE_ANGLE_UNIT ( ) SI_UNIT ( $, .RADIAN. ) );
#92 = AXIS2_PLACEMENT_3D ( 'NONE', #103, #101, #98 ) ;
#93 = DIRECTION ( 'NONE',  ( -0.0000000000000000000, -0.0000000000000000000, 1.000000000000000000 ) ) ;
#94 = CARTESIAN_POINT ( 'NONE',  ( 0.0000000000000000000, 0.0000000000000000000, 5.664438628577664200 ) ) ;
#95 = MECHANICAL_DESIGN_GEOMETRIC_PRESENTATION_REPRESENTATION (  '', ( #110 ), #121 ) ;
#96 = PRESENTATION_LAYER_ASSIGNMENT (  '', '', ( #110 ) ) ;
#97 =( LENGTH_UNIT ( ) NAMED_UNIT ( * ) SI_UNIT ( .MILLI., .METRE. ) );
#98 = DIRECTION ( 'NONE',  ( 1.000000000000000000, 0.0000000000000000000, 0.0000000000000000000 ) ) ;
#99 = AXIS2_PLACEMENT_3D ( 'NONE', #94, #93, #113 ) ;
#100 = CYLINDRICAL_SURFACE ( 'NONE', #99, 25.39999999999999900 ) ;
#101 = DIRECTION ( 'NONE',  ( -0.0000000000000000000, -0.0000000000000000000, 1.000000000000000000 ) ) ;
#102 = FACE_OUTER_BOUND ( 'NONE', #29, .T. ) ;
#103 = CARTESIAN_POINT ( 'NONE',  ( 0.0000000000000000000, 0.0000000000000000000, 5.664438628577664200 ) ) ;
#104 = FILL_AREA_STYLE_COLOUR ( '', #134 ) ;
#105 = FACE_OUTER_BOUND ( 'NONE', #22, .T. ) ;
#106 = VECTOR ( 'NONE', #117, 1000.000000000000000 ) ;
#107 = SURFACE_SIDE_STYLE ('',( #108 ) ) ;
#108 = SURFACE_STYLE_FILL_AREA ( #129 ) ;
#109 = CYLINDRICAL_SURFACE ( 'NONE', #92, 25.39999999999999900 ) ;
#110 = STYLED_ITEM ( 'NONE', ( #111 ), #11 ) ;
#111 = PRESENTATION_STYLE_ASSIGNMENT (( #112 ) ) ;
#112 = SURFACE_STYLE_USAGE ( .BOTH. , #107 ) ;
#113 = DIRECTION ( 'NONE',  ( 1.000000000000000000, 0.0000000000000000000, 0.0000000000000000000 ) ) ;
#114 = COLOUR_RGB ( '',0.9568627450980391500, 0.9490196078431372100, 0.9607843137254902200 ) ;
#115 =( NAMED_UNIT ( * ) PLANE_ANGLE_UNIT ( ) SI_UNIT ( $, .RADIAN. ) );
#116 =( LENGTH_UNIT ( ) NAMED_UNIT ( * ) SI_UNIT ( .MILLI., .METRE. ) );
#117 = DIRECTION ( 'NONE',  ( -0.0000000000000000000, -0.0000000000000000000, 1.000000000000000000 ) ) ;
#118 = CARTESIAN_POINT ( 'NONE',  ( 25.39999999999999900, 0.0000000000000000000, 5.664438628577664200 ) ) ;
#119 = LINE ( 'NONE', #118, #106 ) ;
#120 = FILL_AREA_STYLE ('',( #104 ) ) ;
#121 =( GEOMETRIC_REPRESENTATION_CONTEXT ( 3 ) GLOBAL_UNCERTAINTY_ASSIGNED_CONTEXT ( ( #122 ) ) GLOBAL_UNIT_ASSIGNED_CONTEXT ( ( #116, #115, #135 ) ) REPRESENTATION_CONTEXT ( 'NONE', 'WORKASPACE' ) );
#122 = UNCERTAINTY_MEASURE_WITH_UNIT (LENGTH_MEASURE( 1.000000000000000100E-005 ), #116, 'distance_accuracy_value', 'NONE');
#123 =( NAMED_UNIT ( * ) SI_UNIT ( $, .STERADIAN. ) SOLID_ANGLE_UNIT ( ) );
#124 = MECHANICAL_DESIGN_GEOMETRIC_PRESENTATION_REPRESENTATION (  '', ( #126 ), #139 ) ;
#125 = PRESENTATION_LAYER_ASSIGNMENT (  '', '', ( #126 ) ) ;
#126 = STYLED_ITEM ( 'NONE', ( #127 ), #14 ) ;
#127 = PRESENTATION_STYLE_ASSIGNMENT (( #131 ) ) ;
#128 =( GEOMETRIC_REPRESENTATION_CONTEXT ( 3 ) GLOBAL_UNCERTAINTY_ASSIGNED_CONTEXT ( ( #136 ) ) GLOBAL_UNIT_ASSIGNED_CONTEXT ( ( #70, #64, #123 ) ) REPRESENTATION_CONTEXT ( 'NONE', 'WORKASPACE' ) );
#129 = FILL_AREA_STYLE ('',( #130 ) ) ;
#130 = FILL_AREA_STYLE_COLOUR ( '', #114 ) ;
#131 = SURFACE_STYLE_USAGE ( .BOTH. , #132 ) ;
#132 = SURFACE_SIDE_STYLE ('',( #133 ) ) ;
#133 = SURFACE_STYLE_FILL_AREA ( #120 ) ;
#134 = COLOUR_RGB ( '',0.9568627450980391500, 0.9490196078431372100, 0.9607843137254902200 ) ;
#135 =( NAMED_UNIT ( * ) SI_UNIT ( $, .STERADIAN. ) SOLID_ANGLE_UNIT ( ) );
#136 = UNCERTAINTY_MEASURE_WITH_UNIT (LENGTH_MEASURE( 1.000000000000000100E-005 ), #70, 'distance_accuracy_value', 'NONE');
#137 = CARTESIAN_POINT ( 'NONE',  ( -3.110500138708838900E-015, -25.40000000000000600, 5.352714641851658700 ) ) ;
#138 = DIRECTION ( 'NONE',  ( 1.000000000000000000, 0.0000000000000000000, 0.0000000000000000000 ) ) ;
#139 =( GEOMETRIC_REPRESENTATION_CONTEXT ( 3 ) GLOBAL_UNCERTAINTY_ASSIGNED_CONTEXT ( ( #143 ) ) GLOBAL_UNIT_ASSIGNED_CONTEXT ( ( #97, #91, #168 ) ) REPRESENTATION_CONTEXT ( 'NONE', 'WORKASPACE' ) );
#140 = SPHERICAL_SURFACE ( 'NONE', #146, 51.46000000000000800 ) ;
#141 = CARTESIAN_POINT ( 'NONE',  ( 0.0000000000000000000, 0.0000000000000000000, 50.10728535814833900 ) ) ;
#142 = CARTESIAN_POINT ( 'NONE',  ( 0.0000000000000000000, 0.0000000000000000000, 50.10728535814833900 ) ) ;
#143 = UNCERTAINTY_MEASURE_WITH_UNIT (LENGTH_MEASURE( 1.000000000000000100E-005 ), #97, 'distance_accuracy_value', 'NONE');
#144 = AXIS2_PLACEMENT_3D ( 'NONE', #141, #149, #148 ) ;
#145 = CIRCLE ( 'NONE', #144, 51.46000000000000800 ) ;
#146 = AXIS2_PLACEMENT_3D ( 'NONE', #142, #165, #164 ) ;
#147 = CIRCLE ( 'NONE', #160, 51.46000000000000800 ) ;
#148 = DIRECTION ( 'NONE',  ( 0.0000000000000000000, 0.0000000000000000000, -1.000000000000000000 ) ) ;
#149 = DIRECTION ( 'NONE',  ( 1.000000000000000000, 0.0000000000000000000, 0.0000000000000000000 ) ) ;
#150 = CARTESIAN_POINT ( 'NONE',  ( -25.39999999999999900, 3.110500138708838200E-015, 5.664438628577664200 ) ) ;
#151 = LINE ( 'NONE', #150, #158 ) ;
#152 = DIRECTION ( 'NONE',  ( -0.0000000000000000000, -0.0000000000000000000, 1.000000000000000000 ) ) ;
#153 = CARTESIAN_POINT ( 'NONE',  ( 0.0000000000000000000, 0.0000000000000000000, 5.352714641851661300 ) ) ;
#154 = AXIS2_PLACEMENT_3D ( 'NONE', #153, #152, #138 ) ;
#155 = DIRECTION ( 'NONE',  ( 1.000000000000000000, 0.0000000000000000000, 0.0000000000000000000 ) ) ;
#156 = CARTESIAN_POINT ( 'NONE',  ( 25.39999999999999900, 0.0000000000000000000, 5.352714641851661300 ) ) ;
#157 = DIRECTION ( 'NONE',  ( -0.0000000000000000000, -0.0000000000000000000, 1.000000000000000000 ) ) ;
#158 = VECTOR ( 'NONE', #157, 1000.000000000000000 ) ;
#159 = CARTESIAN_POINT ( 'NONE',  ( 0.0000000000000000000, 0.0000000000000000000, 50.10728535814833900 ) ) ;
#160 = AXIS2_PLACEMENT_3D ( 'NONE', #159, #90, #185 ) ;
#161 = PRESENTATION_LAYER_ASSIGNMENT (  '', '', ( #191 ) ) ;
#162 = DIRECTION ( 'NONE',  ( -0.0000000000000000000, -0.0000000000000000000, 1.000000000000000000 ) ) ;
#163 = CARTESIAN_POINT ( 'NONE',  ( 0.0000000000000000000, 0.0000000000000000000, -5.352714641851661300 ) ) ;
#164 = DIRECTION ( 'NONE',  ( 0.0000000000000000000, 1.000000000000000000, 0.0000000000000000000 ) ) ;
#165 = DIRECTION ( 'NONE',  ( -1.000000000000000000, 0.0000000000000000000, 0.0000000000000000000 ) ) ;
#166 = AXIS2_PLACEMENT_3D ( 'NONE', #163, #162, #155 ) ;
#167 = CIRCLE ( 'NONE', #166, 25.39999999999999900 ) ;
#168 =( NAMED_UNIT ( * ) SI_UNIT ( $, .STERADIAN. ) SOLID_ANGLE_UNIT ( ) );
#169 = CIRCLE ( 'NONE', #154, 25.39999999999999900 ) ;
#170 = CIRCLE ( 'NONE', #208, 25.39999999999999900 ) ;
#171 = FACE_OUTER_BOUND ( 'NONE', #50, .T. ) ;
#172 = CARTESIAN_POINT ( 'NONE',  ( 0.0000000000000000000, 3.150912148384976700E-015, -1.352714641851666900 ) ) ;
#173 = CARTESIAN_POINT ( 'NONE',  ( -25.39999999999999900, 3.110500138708838200E-015, -5.352714641851661300 ) ) ;
#174 = DIRECTION ( 'NONE',  ( 1.000000000000000000, 0.0000000000000000000, 0.0000000000000000000 ) ) ;
#175 = DIRECTION ( 'NONE',  ( -0.0000000000000000000, -0.0000000000000000000, 1.000000000000000000 ) ) ;
#176 = CARTESIAN_POINT ( 'NONE',  ( 0.0000000000000000000, 0.0000000000000000000, 5.352714641851661300 ) ) ;
#177 = DIRECTION ( 'NONE',  ( -0.0000000000000000000, -0.0000000000000000000, 1.000000000000000000 ) ) ;
#178 = CARTESIAN_POINT ( 'NONE',  ( 0.0000000000000000000, 0.0000000000000000000, 5.352714641851661300 ) ) ;
#179 = AXIS2_PLACEMENT_3D ( 'NONE', #178, #177, #206 ) ;
#180 = PRESENTATION_STYLE_ASSIGNMENT (( #200 ) ) ;
#181 = PRESENTATION_LAYER_ASSIGNMENT (  '', '', ( #182 ) ) ;
#182 = STYLED_ITEM ( 'NONE', ( #180 ), #34 ) ;
#183 = SURFACE_STYLE_FILL_AREA ( #202 ) ;
#184 = DIRECTION ( 'NONE',  ( 1.000000000000000000, 0.0000000000000000000, 0.0000000000000000000 ) ) ;
#185 = DIRECTION ( 'NONE',  ( -1.224606353822377000E-016, -1.000000000000000000, 0.0000000000000000000 ) ) ;
#186 = FILL_AREA_STYLE_COLOUR ( '', #189 ) ;
#187 =( GEOMETRIC_REPRESENTATION_CONTEXT ( 3 ) GLOBAL_UNCERTAINTY_ASSIGNED_CONTEXT ( ( #203 ) ) GLOBAL_UNIT_ASSIGNED_CONTEXT ( ( #207, #199, #188 ) ) REPRESENTATION_CONTEXT ( 'NONE', 'WORKASPACE' ) );
#188 =( NAMED_UNIT ( * ) SI_UNIT ( $, .STERADIAN. ) SOLID_ANGLE_UNIT ( ) );
#189 = COLOUR_RGB ( '',0.7960784313725489700, 0.8235294117647058400, 0.9372549019607843100 ) ;
#190 = MECHANICAL_DESIGN_GEOMETRIC_PRESENTATION_REPRESENTATION (  '', ( #182 ), #187 ) ;
#191 = STYLED_ITEM ( 'NONE', ( #192 ), #55 ) ;
#192 = PRESENTATION_STYLE_ASSIGNMENT (( #193 ) ) ;
#193 = SURFACE_STYLE_USAGE ( .BOTH. , #194 ) ;
#194 = SURFACE_SIDE_STYLE ('',( #195 ) ) ;
#195 = SURFACE_STYLE_FILL_AREA ( #196 ) ;
#196 = FILL_AREA_STYLE ('',( #197 ) ) ;
#197 = FILL_AREA_STYLE_COLOUR ( '', #198 ) ;
#198 = COLOUR_RGB ( '',0.9568627450980391500, 0.9490196078431372100, 0.9607843137254902200 ) ;
#199 =( NAMED_UNIT ( * ) PLANE_ANGLE_UNIT ( ) SI_UNIT ( $, .RADIAN. ) );
#200 = SURFACE_STYLE_USAGE ( .BOTH. , #209 ) ;
#201 = DIRECTION ( 'NONE',  ( -0.0000000000000000000, -0.0000000000000000000, 1.000000000000000000 ) ) ;
#202 = FILL_AREA_STYLE ('',( #186 ) ) ;
#203 = UNCERTAINTY_MEASURE_WITH_UNIT (LENGTH_MEASURE( 1.000000000000000100E-005 ), #207, 'distance_accuracy_value', 'NONE');
#204 = CARTESIAN_POINT ( 'NONE',  ( 25.39999999999999900, 0.0000000000000000000, -5.352714641851661300 ) ) ;
#205 = CIRCLE ( 'NONE', #211, 25.39999999999999900 ) ;
#206 = DIRECTION ( 'NONE',  ( 1.000000000000000000, 0.0000000000000000000, 0.0000000000000000000 ) ) ;
#207 =( LENGTH_UNIT ( ) NAMED_UNIT ( * ) SI_UNIT ( .MILLI., .METRE. ) );
#208 = AXIS2_PLACEMENT_3D ( 'NONE', #212, #201, #184 ) ;
#209 = SURFACE_SIDE_STYLE ('',( #183 ) ) ;
#210 = CIRCLE ( 'NONE', #179, 25.39999999999999900 ) ;
#211 = AXIS2_PLACEMENT_3D ( 'NONE', #176, #175, #174 ) ;
#212 = CARTESIAN_POINT ( 'NONE',  ( 0.0000000000000000000, 0.0000000000000000000, -5.352714641851661300 ) ) ;
#213 = SPHERICAL_SURFACE ( 'NONE', #219, 51.46000000000000800 ) ;
#214 = UNCERTAINTY_MEASURE_WITH_UNIT (LENGTH_MEASURE( 1.000000000000000100E-005 ), #221, 'distance_accuracy_value', 'NONE');
#215 = CARTESIAN_POINT ( 'NONE',  ( 0.0000000000000000000, 25.40000000000000600, 5.352714641851658700 ) ) ;
#216 =( NAMED_UNIT ( * ) PLANE_ANGLE_UNIT ( ) SI_UNIT ( $, .RADIAN. ) );
#217 =( GEOMETRIC_REPRESENTATION_CONTEXT ( 3 ) GLOBAL_UNCERTAINTY_ASSIGNED_CONTEXT ( ( #214 ) ) GLOBAL_UNIT_ASSIGNED_CONTEXT ( ( #221, #216, #220 ) ) REPRESENTATION_CONTEXT ( 'NONE', 'WORKASPACE' ) );
#218 = CARTESIAN_POINT ( 'NONE',  ( 0.0000000000000000000, 0.0000000000000000000, 50.10728535814833900 ) ) ;
#219 = AXIS2_PLACEMENT_3D ( 'NONE', #218, #224, #223 ) ;
#220 =( NAMED_UNIT ( * ) SI_UNIT ( $, .STERADIAN. ) SOLID_ANGLE_UNIT ( ) );
#221 =( LENGTH_UNIT ( ) NAMED_UNIT ( * ) SI_UNIT ( .MILLI., .METRE. ) );
#222 = MECHANICAL_DESIGN_GEOMETRIC_PRESENTATION_REPRESENTATION (  '', ( #191 ), #217 ) ;
#223 = DIRECTION ( 'NONE',  ( 0.0000000000000000000, 1.000000000000000000, 0.0000000000000000000 ) ) ;
#224 = DIRECTION ( 'NONE',  ( -1.000000000000000000, 0.0000000000000000000, 0.0000000000000000000 ) ) ;
#225 = CARTESIAN_POINT ( 'NONE',  ( -25.39999999999999900, 3.110500138708838200E-015, 5.352714641851661300 ) ) ;
#226 =( NAMED_UNIT ( * ) SI_UNIT ( $, .STERADIAN. ) SOLID_ANGLE_UNIT ( ) );
#227 =( GEOMETRIC_REPRESENTATION_CONTEXT ( 3 ) GLOBAL_UNCERTAINTY_ASSIGNED_CONTEXT ( ( #237 ) ) GLOBAL_UNIT_ASSIGNED_CONTEXT ( ( #236, #231, #232 ) ) REPRESENTATION_CONTEXT ( 'NONE', 'WORKASPACE' ) );
#228 = MECHANICAL_DESIGN_GEOMETRIC_PRESENTATION_REPRESENTATION (  '', ( #244 ), #227 ) ;
#229 =( NAMED_UNIT ( * ) PLANE_ANGLE_UNIT ( ) SI_UNIT ( $, .RADIAN. ) );
#230 = UNCERTAINTY_MEASURE_WITH_UNIT (LENGTH_MEASURE( 1.000000000000000100E-005 ), #68, 'distance_accuracy_value', 'NONE');
#231 =( NAMED_UNIT ( * ) PLANE_ANGLE_UNIT ( ) SI_UNIT ( $, .RADIAN. ) );
#232 =( NAMED_UNIT ( * ) SI_UNIT ( $, .STERADIAN. ) SOLID_ANGLE_UNIT ( ) );
#233 = SURFACE_STYLE_FILL_AREA ( #234 ) ;
#234 = FILL_AREA_STYLE ('',( #238 ) ) ;
#235 =( GEOMETRIC_REPRESENTATION_CONTEXT ( 3 ) GLOBAL_UNCERTAINTY_ASSIGNED_CONTEXT ( ( #230 ) ) GLOBAL_UNIT_ASSIGNED_CONTEXT ( ( #68, #229, #226 ) ) REPRESENTATION_CONTEXT ( 'NONE', 'WORKASPACE' ) );
#236 =( LENGTH_UNIT ( ) NAMED_UNIT ( * ) SI_UNIT ( .MILLI., .METRE. ) );
#237 = UNCERTAINTY_MEASURE_WITH_UNIT (LENGTH_MEASURE( 1.000000000000000100E-005 ), #236, 'distance_accuracy_value', 'NONE');
#238 = FILL_AREA_STYLE_COLOUR ( '', #239 ) ;
#239 = COLOUR_RGB ( '',0.7960784313725489700, 0.8235294117647058400, 0.9372549019607843100 ) ;
#240 = SURFACE_STYLE_USAGE ( .BOTH. , #242 ) ;
#241 = ADVANCED_BREP_SHAPE_REPRESENTATION ( '4796-E0W', ( #34, #249 ), #235 ) ;
#242 = SURFACE_SIDE_STYLE ('',( #233 ) ) ;
#243 = PRESENTATION_LAYER_ASSIGNMENT (  '', '', ( #244 ) ) ;
#244 = STYLED_ITEM ( 'NONE', ( #245 ), #241 ) ;
#245 = PRESENTATION_STYLE_ASSIGNMENT (( #240 ) ) ;
#246 = CARTESIAN_POINT ( 'NONE',  ( 0.0000000000000000000, 0.0000000000000000000, 0.0000000000000000000 ) ) ;
#247 = DIRECTION ( 'NONE',  ( 0.0000000000000000000, 0.0000000000000000000, 1.000000000000000000 ) ) ;
#248 = DIRECTION ( 'NONE',  ( 1.000000000000000000, 0.0000000000000000000, 0.0000000000000000000 ) ) ;
#249 = AXIS2_PLACEMENT_3D ( 'NONE', #246, #247, #248 ) ;
#250 = PRODUCT_RELATED_PRODUCT_CATEGORY ( 'part', '', ( #257 ) ) ;
#251 = PRODUCT_DEFINITION_FORMATION_WITH_SPECIFIED_SOURCE ( 'ANY', '', #257, .NOT_KNOWN. ) ;
#252 = PRODUCT_DEFINITION_CONTEXT ( 'detailed design', #256, 'design' ) ;
#253 = APPLICATION_CONTEXT ( 'automotive_design' ) ;
#254 = PRODUCT_DEFINITION ( 'UNKNOWN', '', #251, #252 ) ;
#255 = APPLICATION_PROTOCOL_DEFINITION ( 'draft international standard', 'automotive_design', 1998, #256 ) ;
#256 = APPLICATION_CONTEXT ( 'automotive_design' ) ;
#257 = PRODUCT ( '4796-E0W', '4796-E0W', '', ( #258 ) ) ;
#258 = PRODUCT_CONTEXT ( 'NONE', #253, 'mechanical' ) ;
#259 = APPLICATION_PROTOCOL_DEFINITION ( 'draft international standard', 'automotive_design', 1998, #253 ) ;
#260 = PRODUCT_DEFINITION_SHAPE ( 'NONE', 'NONE',  #254 ) ;
#261 = SHAPE_DEFINITION_REPRESENTATION ( #260, #241 ) ;
ENDSEC;
END-ISO-10303-21;
