ISO-10303-21;
HEADER;
FILE_DESCRIPTION (( 'STEP AP203' ),
    '1' );
FILE_NAME ('Web Model 37117MX_37123.step',
    '2017-10-30T12:46:46',
    ( '' ),
    ( '' ),
    'SwSTEP 2.0',
    'SolidWorks 2016',
    '' );
FILE_SCHEMA (( 'CONFIG_CONTROL_DESIGN' ));
ENDSEC;

DATA;
#1 = VECTOR ( 'NONE', #114, 1000.000000000000000 ) ;
#2 = PLANE ( 'NONE',  #16 ) ;
#3 = DIRECTION ( 'NONE',  ( -1.000000000000000000, -1.387778780781445900E-016, 0.0000000000000000000 ) ) ;
#4 = ADVANCED_FACE ( 'NONE', ( #45 ), #108, .F. ) ;
#5 =( NAMED_UNIT ( * ) SI_UNIT ( $, .STERADIAN. ) SOLID_ANGLE_UNIT ( ) );
#6 = CALENDAR_DATE ( 2017, 30, 10 ) ;
#7 = ORIENTED_EDGE ( 'NONE', *, *, #208, .T. ) ;
#8 = APPROVAL_STATUS ( 'not_yet_approved' ) ;
#9 = DATE_AND_TIME ( #40, #228 ) ;
#10 = PERSON_AND_ORGANIZATION ( #140, #58 ) ;
#11 = PRODUCT_DEFINITION_FORMATION_WITH_SPECIFIED_SOURCE ( 'ANY', '', #66, .NOT_KNOWN. ) ;
#12 = APPROVAL_DATE_TIME ( #9, #216 ) ;
#13 = LINE ( 'NONE', #199, #115 ) ;
#14 = EDGE_LOOP ( 'NONE', ( #112, #129, #152, #218 ) ) ;
#15 = PLANE ( 'NONE',  #30 ) ;
#16 = AXIS2_PLACEMENT_3D ( 'NONE', #237, #33, #53 ) ;
#17 = DIRECTION ( 'NONE',  ( 0.0000000000000000000, 0.0000000000000000000, -1.000000000000000000 ) ) ;
#18 = PRODUCT_RELATED_PRODUCT_CATEGORY ( 'detail', '', ( #66 ) ) ;
#19 = DIRECTION ( 'NONE',  ( -1.387778780781445700E-016, 1.000000000000000000, 0.0000000000000000000 ) ) ;
#20 = CARTESIAN_POINT ( 'NONE',  ( 0.0000000000000000000, 0.0000000000000000000, -3.000000000000000000 ) ) ;
#21 = LINE ( 'NONE', #221, #189 ) ;
#22 = MECHANICAL_CONTEXT ( 'NONE', #38, 'mechanical' ) ;
#23 =( LENGTH_UNIT ( ) NAMED_UNIT ( * ) SI_UNIT ( .MILLI., .METRE. ) );
#24 = COORDINATED_UNIVERSAL_TIME_OFFSET ( 5, 0, .BEHIND. ) ;
#25 = DATE_TIME_ROLE ( 'creation_date' ) ;
#26 = EDGE_CURVE ( 'NONE', #231, #75, #226, .T. ) ;
#27 = LINE ( 'NONE', #110, #211 ) ;
#28 = ORIENTED_EDGE ( 'NONE', *, *, #156, .T. ) ;
#29 = ORIENTED_EDGE ( 'NONE', *, *, #89, .T. ) ;
#30 = AXIS2_PLACEMENT_3D ( 'NONE', #234, #144, #107 ) ;
#31 = LINE ( 'NONE', #165, #203 ) ;
#32 = AXIS2_PLACEMENT_3D ( 'NONE', #20, #143, #125 ) ;
#33 = DIRECTION ( 'NONE',  ( -1.000000000000000000, 0.0000000000000000000, 0.0000000000000000000 ) ) ;
#34 = CARTESIAN_POINT ( 'NONE',  ( 6.249999999999998200, -6.249999999999998200, 3.000000000000000000 ) ) ;
#35 = AXIS2_PLACEMENT_3D ( 'NONE', #71, #126, #17 ) ;
#36 = LOCAL_TIME ( 8, 46, 46.00000000000000000, #90 ) ;
#37 = CLOSED_SHELL ( 'NONE', ( #4, #131, #82, #184, #74, #166 ) ) ;
#38 = APPLICATION_CONTEXT ( 'configuration controlled 3d designs of mechanical parts and assemblies' ) ;
#39 = DIRECTION ( 'NONE',  ( -1.000000000000000000, -1.387778780781445900E-016, 0.0000000000000000000 ) ) ;
#40 = CALENDAR_DATE ( 2017, 30, 10 ) ;
#41 = CARTESIAN_POINT ( 'NONE',  ( 0.0000000000000000000, 0.0000000000000000000, 0.0000000000000000000 ) ) ;
#42 = DIRECTION ( 'NONE',  ( -0.0000000000000000000, -0.0000000000000000000, -1.000000000000000000 ) ) ;
#43 = ORIENTED_EDGE ( 'NONE', *, *, #210, .F. ) ;
#44 =( GEOMETRIC_REPRESENTATION_CONTEXT ( 3 ) GLOBAL_UNCERTAINTY_ASSIGNED_CONTEXT ( ( #146 ) ) GLOBAL_UNIT_ASSIGNED_CONTEXT ( ( #23, #154, #5 ) ) REPRESENTATION_CONTEXT ( 'NONE', 'WORKASPACE' ) );
#45 = FACE_OUTER_BOUND ( 'NONE', #224, .T. ) ;
#46 = VERTEX_POINT ( 'NONE', #163 ) ;
#47 = CC_DESIGN_PERSON_AND_ORGANIZATION_ASSIGNMENT ( #193, #153, ( #11 ) ) ;
#48 = DATE_AND_TIME ( #135, #176 ) ;
#49 = ORIENTED_EDGE ( 'NONE', *, *, #223, .T. ) ;
#50 = AXIS2_PLACEMENT_3D ( 'NONE', #201, #19, #204 ) ;
#51 = APPROVAL_DATE_TIME ( #100, #158 ) ;
#52 = VERTEX_POINT ( 'NONE', #98 ) ;
#53 = DIRECTION ( 'NONE',  ( 0.0000000000000000000, 0.0000000000000000000, 1.000000000000000000 ) ) ;
#54 = VECTOR ( 'NONE', #95, 1000.000000000000000 ) ;
#55 = CC_DESIGN_SECURITY_CLASSIFICATION ( #220, ( #11 ) ) ;
#56 = CARTESIAN_POINT ( 'NONE',  ( -6.250000000000000000, -6.250000000000000000, -3.000000000000000000 ) ) ;
#57 = CARTESIAN_POINT ( 'NONE',  ( -6.250000000000000000, 6.250000000000000000, -3.000000000000000000 ) ) ;
#58 = ORGANIZATION ( 'UNSPECIFIED', 'UNSPECIFIED', '' ) ;
#59 = DIRECTION ( 'NONE',  ( 1.000000000000000000, 1.387778780781445900E-016, -0.0000000000000000000 ) ) ;
#60 = DIRECTION ( 'NONE',  ( 1.387778780781445700E-016, -1.000000000000000000, 0.0000000000000000000 ) ) ;
#61 = PERSON_AND_ORGANIZATION_ROLE ( 'design_owner' ) ;
#62 = LINE ( 'NONE', #151, #197 ) ;
#63 = ORIENTED_EDGE ( 'NONE', *, *, #159, .F. ) ;
#64 = AXIS2_PLACEMENT_3D ( 'NONE', #83, #60, #174 ) ;
#65 = CALENDAR_DATE ( 2017, 30, 10 ) ;
#66 = PRODUCT ( 'Web Model 37117MX_37123', 'Web Model 37117MX_37123', '', ( #22 ) ) ;
#67 = EDGE_LOOP ( 'NONE', ( #88, #162, #7, #117 ) ) ;
#68 = DIRECTION ( 'NONE',  ( -0.0000000000000000000, -1.000000000000000000, -0.0000000000000000000 ) ) ;
#69 = VERTEX_POINT ( 'NONE', #128 ) ;
#70 = APPROVAL_PERSON_ORGANIZATION ( #209, #216, #99 ) ;
#71 = CARTESIAN_POINT ( 'NONE',  ( -6.250000000000000000, -6.250000000000000000, 3.000000000000000000 ) ) ;
#72 = PLANE ( 'NONE',  #50 ) ;
#73 = CARTESIAN_POINT ( 'NONE',  ( -6.250000000000000000, -6.250000000000000000, 3.000000000000000000 ) ) ;
#74 = ADVANCED_FACE ( 'NONE', ( #185 ), #15, .T. ) ;
#75 = VERTEX_POINT ( 'NONE', #183 ) ;
#76 = CARTESIAN_POINT ( 'NONE',  ( -6.250000000000000000, -6.250000000000000000, 3.000000000000000000 ) ) ;
#77 = ORIENTED_EDGE ( 'NONE', *, *, #182, .F. ) ;
#78 = ADVANCED_BREP_SHAPE_REPRESENTATION ( 'Web Model 37117MX_37123', ( #200, #124 ), #44 ) ;
#79 = APPROVAL_STATUS ( 'not_yet_approved' ) ;
#80 = PRODUCT_DEFINITION_SHAPE ( 'NONE', 'NONE',  #227 ) ;
#81 = PERSON_AND_ORGANIZATION_ROLE ( 'creator' ) ;
#82 = ADVANCED_FACE ( 'NONE', ( #97 ), #2, .F. ) ;
#83 = CARTESIAN_POINT ( 'NONE',  ( 6.249999999999998200, 6.250000000000001800, 3.000000000000000000 ) ) ;
#84 = DATE_AND_TIME ( #65, #177 ) ;
#85 = ORIENTED_EDGE ( 'NONE', *, *, #171, .F. ) ;
#86 = APPROVAL_ROLE ( '' ) ;
#87 = VECTOR ( 'NONE', #68, 1000.000000000000000 ) ;
#88 = ORIENTED_EDGE ( 'NONE', *, *, #171, .T. ) ;
#89 = EDGE_CURVE ( 'NONE', #52, #173, #31, .T. ) ;
#90 = COORDINATED_UNIVERSAL_TIME_OFFSET ( 5, 0, .BEHIND. ) ;
#91 = DESIGN_CONTEXT ( 'detailed design', #192, 'design' ) ;
#92 = COORDINATED_UNIVERSAL_TIME_OFFSET ( 5, 0, .BEHIND. ) ;
#93 = CC_DESIGN_DATE_AND_TIME_ASSIGNMENT ( #48, #207, ( #220 ) ) ;
#94 = ORIENTED_EDGE ( 'NONE', *, *, #217, .T. ) ;
#95 = DIRECTION ( 'NONE',  ( -0.0000000000000000000, -1.000000000000000000, -0.0000000000000000000 ) ) ;
#96 = PLANE ( 'NONE',  #32 ) ;
#97 = FACE_OUTER_BOUND ( 'NONE', #178, .T. ) ;
#98 = CARTESIAN_POINT ( 'NONE',  ( 6.249999999999998200, 6.250000000000001800, 3.000000000000000000 ) ) ;
#99 = APPROVAL_ROLE ( '' ) ;
#100 = DATE_AND_TIME ( #137, #103 ) ;
#101 = PERSON_AND_ORGANIZATION_ROLE ( 'creator' ) ;
#102 = ORIENTED_EDGE ( 'NONE', *, *, #182, .T. ) ;
#103 = LOCAL_TIME ( 8, 46, 46.00000000000000000, #104 ) ;
#104 = COORDINATED_UNIVERSAL_TIME_OFFSET ( 5, 0, .BEHIND. ) ;
#105 = PERSON_AND_ORGANIZATION ( #140, #58 ) ;
#106 = LINE ( 'NONE', #142, #222 ) ;
#107 = DIRECTION ( 'NONE',  ( 1.000000000000000000, 0.0000000000000000000, -0.0000000000000000000 ) ) ;
#108 = PLANE ( 'NONE',  #35 ) ;
#109 = DIRECTION ( 'NONE',  ( -0.0000000000000000000, -0.0000000000000000000, -1.000000000000000000 ) ) ;
#110 = CARTESIAN_POINT ( 'NONE',  ( 6.249999999999998200, 6.250000000000001800, 3.000000000000000000 ) ) ;
#111 = SHAPE_DEFINITION_REPRESENTATION ( #80, #78 ) ;
#112 = ORIENTED_EDGE ( 'NONE', *, *, #26, .F. ) ;
#113 = APPLICATION_PROTOCOL_DEFINITION ( 'international standard', 'config_control_design', 1994, #38 ) ;
#114 = DIRECTION ( 'NONE',  ( 1.000000000000000000, 1.387778780781445900E-016, -0.0000000000000000000 ) ) ;
#115 = VECTOR ( 'NONE', #3, 1000.000000000000000 ) ;
#116 = FACE_OUTER_BOUND ( 'NONE', #212, .T. ) ;
#117 = ORIENTED_EDGE ( 'NONE', *, *, #196, .T. ) ;
#118 = CC_DESIGN_APPROVAL ( #158, ( #227 ) ) ;
#119 = CC_DESIGN_PERSON_AND_ORGANIZATION_ASSIGNMENT ( #105, #149, ( #220 ) ) ;
#120 = VECTOR ( 'NONE', #219, 1000.000000000000000 ) ;
#121 = ORIENTED_EDGE ( 'NONE', *, *, #196, .F. ) ;
#122 = COORDINATED_UNIVERSAL_TIME_OFFSET ( 5, 0, .BEHIND. ) ;
#123 = VERTEX_POINT ( 'NONE', #73 ) ;
#124 = AXIS2_PLACEMENT_3D ( 'NONE', #41, #205, #170 ) ;
#125 = DIRECTION ( 'NONE',  ( 1.000000000000000000, 0.0000000000000000000, -0.0000000000000000000 ) ) ;
#126 = DIRECTION ( 'NONE',  ( 1.000000000000000000, 0.0000000000000000000, 0.0000000000000000000 ) ) ;
#127 = ORIENTED_EDGE ( 'NONE', *, *, #26, .T. ) ;
#128 = CARTESIAN_POINT ( 'NONE',  ( -6.250000000000000000, 6.250000000000000000, 3.000000000000000000 ) ) ;
#129 = ORIENTED_EDGE ( 'NONE', *, *, #156, .F. ) ;
#130 = ORIENTED_EDGE ( 'NONE', *, *, #89, .F. ) ;
#131 = ADVANCED_FACE ( 'NONE', ( #232 ), #72, .F. ) ;
#132 = CARTESIAN_POINT ( 'NONE',  ( 6.249999999999998200, -6.249999999999998200, 3.000000000000000000 ) ) ;
#133 = APPROVAL_STATUS ( 'not_yet_approved' ) ;
#134 = LINE ( 'NONE', #132, #141 ) ;
#135 = CALENDAR_DATE ( 2017, 30, 10 ) ;
#136 = CC_DESIGN_DATE_AND_TIME_ASSIGNMENT ( #195, #25, ( #227 ) ) ;
#137 = CALENDAR_DATE ( 2017, 30, 10 ) ;
#138 = ORIENTED_EDGE ( 'NONE', *, *, #159, .T. ) ;
#139 = CC_DESIGN_PERSON_AND_ORGANIZATION_ASSIGNMENT ( #230, #81, ( #227 ) ) ;
#140 = PERSON ( 'UNSPECIFIED', 'UNSPECIFIED', 'UNSPECIFIED', ('UNSPECIFIED'), ('UNSPECIFIED'), ('UNSPECIFIED') ) ;
#141 = VECTOR ( 'NONE', #169, 1000.000000000000000 ) ;
#142 = CARTESIAN_POINT ( 'NONE',  ( -6.250000000000000000, -6.250000000000000000, 3.000000000000000000 ) ) ;
#143 = DIRECTION ( 'NONE',  ( 0.0000000000000000000, -0.0000000000000000000, 1.000000000000000000 ) ) ;
#144 = DIRECTION ( 'NONE',  ( 0.0000000000000000000, -0.0000000000000000000, 1.000000000000000000 ) ) ;
#145 = APPROVAL_DATE_TIME ( #84, #225 ) ;
#146 = UNCERTAINTY_MEASURE_WITH_UNIT (LENGTH_MEASURE( 1.000000000000000100E-005 ), #23, 'distance_accuracy_value', 'NONE');
#147 = EDGE_CURVE ( 'NONE', #46, #173, #21, .T. ) ;
#148 = CARTESIAN_POINT ( 'NONE',  ( 6.249999999999998200, -6.249999999999998200, 3.000000000000000000 ) ) ;
#149 = PERSON_AND_ORGANIZATION_ROLE ( 'classification_officer' ) ;
#150 = ORIENTED_EDGE ( 'NONE', *, *, #208, .F. ) ;
#151 = CARTESIAN_POINT ( 'NONE',  ( -6.250000000000000000, 6.250000000000000000, 3.000000000000000000 ) ) ;
#152 = ORIENTED_EDGE ( 'NONE', *, *, #147, .F. ) ;
#153 = PERSON_AND_ORGANIZATION_ROLE ( 'design_supplier' ) ;
#154 =( NAMED_UNIT ( * ) PLANE_ANGLE_UNIT ( ) SI_UNIT ( $, .RADIAN. ) );
#155 = APPLICATION_PROTOCOL_DEFINITION ( 'international standard', 'config_control_design', 1994, #192 ) ;
#156 = EDGE_CURVE ( 'NONE', #173, #231, #13, .T. ) ;
#157 = LINE ( 'NONE', #76, #54 ) ;
#158 = APPROVAL ( #79, 'UNSPECIFIED' ) ;
#159 = EDGE_CURVE ( 'NONE', #123, #75, #106, .T. ) ;
#160 = PERSON_AND_ORGANIZATION ( #140, #58 ) ;
#161 = LINE ( 'NONE', #190, #1 ) ;
#162 = ORIENTED_EDGE ( 'NONE', *, *, #210, .T. ) ;
#163 = CARTESIAN_POINT ( 'NONE',  ( 6.249999999999998200, -6.249999999999998200, -3.000000000000000000 ) ) ;
#164 = LINE ( 'NONE', #172, #168 ) ;
#165 = CARTESIAN_POINT ( 'NONE',  ( 6.249999999999998200, 6.250000000000001800, 3.000000000000000000 ) ) ;
#166 = ADVANCED_FACE ( 'NONE', ( #175 ), #96, .F. ) ;
#167 = PLANE ( 'NONE',  #64 ) ;
#168 = VECTOR ( 'NONE', #59, 1000.000000000000000 ) ;
#169 = DIRECTION ( 'NONE',  ( 0.0000000000000000000, 1.000000000000000000, 0.0000000000000000000 ) ) ;
#170 = DIRECTION ( 'NONE',  ( 1.000000000000000000, 0.0000000000000000000, 0.0000000000000000000 ) ) ;
#171 = EDGE_CURVE ( 'NONE', #69, #123, #157, .T. ) ;
#172 = CARTESIAN_POINT ( 'NONE',  ( 6.249999999999998200, -6.249999999999998200, 3.000000000000000000 ) ) ;
#173 = VERTEX_POINT ( 'NONE', #236 ) ;
#174 = DIRECTION ( 'NONE',  ( 1.000000000000000000, 1.387778780781445700E-016, 0.0000000000000000000 ) ) ;
#175 = FACE_OUTER_BOUND ( 'NONE', #14, .T. ) ;
#176 = LOCAL_TIME ( 8, 46, 46.00000000000000000, #24 ) ;
#177 = LOCAL_TIME ( 8, 46, 46.00000000000000000, #122 ) ;
#178 = EDGE_LOOP ( 'NONE', ( #215, #130, #150, #102 ) ) ;
#179 = CC_DESIGN_PERSON_AND_ORGANIZATION_ASSIGNMENT ( #10, #61, ( #66 ) ) ;
#180 = PERSON_AND_ORGANIZATION ( #140, #58 ) ;
#181 = VERTEX_POINT ( 'NONE', #34 ) ;
#182 = EDGE_CURVE ( 'NONE', #181, #46, #194, .T. ) ;
#183 = CARTESIAN_POINT ( 'NONE',  ( -6.250000000000000000, -6.250000000000000000, -3.000000000000000000 ) ) ;
#184 = ADVANCED_FACE ( 'NONE', ( #116 ), #167, .F. ) ;
#185 = FACE_OUTER_BOUND ( 'NONE', #67, .T. ) ;
#186 = DIRECTION ( 'NONE',  ( -0.0000000000000000000, -0.0000000000000000000, -1.000000000000000000 ) ) ;
#187 = DIRECTION ( 'NONE',  ( 0.0000000000000000000, 1.000000000000000000, 0.0000000000000000000 ) ) ;
#188 = SECURITY_CLASSIFICATION_LEVEL ( 'unclassified' ) ;
#189 = VECTOR ( 'NONE', #187, 1000.000000000000000 ) ;
#190 = CARTESIAN_POINT ( 'NONE',  ( 6.249999999999998200, -6.249999999999998200, -3.000000000000000000 ) ) ;
#191 = APPROVAL_ROLE ( '' ) ;
#192 = APPLICATION_CONTEXT ( 'configuration controlled 3d designs of mechanical parts and assemblies' ) ;
#193 = PERSON_AND_ORGANIZATION ( #140, #58 ) ;
#194 = LINE ( 'NONE', #148, #120 ) ;
#195 = DATE_AND_TIME ( #6, #36 ) ;
#196 = EDGE_CURVE ( 'NONE', #52, #69, #27, .T. ) ;
#197 = VECTOR ( 'NONE', #42, 1000.000000000000000 ) ;
#198 = APPROVAL_PERSON_ORGANIZATION ( #160, #158, #191 ) ;
#199 = CARTESIAN_POINT ( 'NONE',  ( 6.249999999999998200, 6.250000000000001800, -3.000000000000000000 ) ) ;
#200 = MANIFOLD_SOLID_BREP ( 'Boss-Extrude1', #37 ) ;
#201 = CARTESIAN_POINT ( 'NONE',  ( 6.249999999999998200, -6.249999999999998200, 3.000000000000000000 ) ) ;
#202 = PERSON_AND_ORGANIZATION ( #140, #58 ) ;
#203 = VECTOR ( 'NONE', #109, 1000.000000000000000 ) ;
#204 = DIRECTION ( 'NONE',  ( -1.000000000000000000, -1.387778780781445700E-016, 0.0000000000000000000 ) ) ;
#205 = DIRECTION ( 'NONE',  ( 0.0000000000000000000, 0.0000000000000000000, 1.000000000000000000 ) ) ;
#206 = CC_DESIGN_APPROVAL ( #216, ( #11 ) ) ;
#207 = DATE_TIME_ROLE ( 'classification_date' ) ;
#208 = EDGE_CURVE ( 'NONE', #181, #52, #134, .T. ) ;
#209 = PERSON_AND_ORGANIZATION ( #140, #58 ) ;
#210 = EDGE_CURVE ( 'NONE', #123, #181, #164, .T. ) ;
#211 = VECTOR ( 'NONE', #39, 1000.000000000000000 ) ;
#212 = EDGE_LOOP ( 'NONE', ( #28, #214, #121, #29 ) ) ;
#213 = APPROVAL_PERSON_ORGANIZATION ( #202, #225, #86 ) ;
#214 = ORIENTED_EDGE ( 'NONE', *, *, #223, .F. ) ;
#215 = ORIENTED_EDGE ( 'NONE', *, *, #147, .T. ) ;
#216 = APPROVAL ( #133, 'UNSPECIFIED' ) ;
#217 = EDGE_CURVE ( 'NONE', #75, #46, #161, .T. ) ;
#218 = ORIENTED_EDGE ( 'NONE', *, *, #217, .F. ) ;
#219 = DIRECTION ( 'NONE',  ( -0.0000000000000000000, -0.0000000000000000000, -1.000000000000000000 ) ) ;
#220 = SECURITY_CLASSIFICATION ( '', '', #188 ) ;
#221 = CARTESIAN_POINT ( 'NONE',  ( 6.249999999999998200, -6.249999999999998200, -3.000000000000000000 ) ) ;
#222 = VECTOR ( 'NONE', #186, 1000.000000000000000 ) ;
#223 = EDGE_CURVE ( 'NONE', #69, #231, #62, .T. ) ;
#224 = EDGE_LOOP ( 'NONE', ( #127, #63, #85, #49 ) ) ;
#225 = APPROVAL ( #8, 'UNSPECIFIED' ) ;
#226 = LINE ( 'NONE', #56, #87 ) ;
#227 = PRODUCT_DEFINITION ( 'UNKNOWN', '', #11, #91 ) ;
#228 = LOCAL_TIME ( 8, 46, 46.00000000000000000, #92 ) ;
#229 = CC_DESIGN_APPROVAL ( #225, ( #220 ) ) ;
#230 = PERSON_AND_ORGANIZATION ( #140, #58 ) ;
#231 = VERTEX_POINT ( 'NONE', #57 ) ;
#232 = FACE_OUTER_BOUND ( 'NONE', #233, .T. ) ;
#233 = EDGE_LOOP ( 'NONE', ( #94, #77, #43, #138 ) ) ;
#234 = CARTESIAN_POINT ( 'NONE',  ( 0.0000000000000000000, 0.0000000000000000000, 3.000000000000000000 ) ) ;
#235 = CC_DESIGN_PERSON_AND_ORGANIZATION_ASSIGNMENT ( #180, #101, ( #11 ) ) ;
#236 = CARTESIAN_POINT ( 'NONE',  ( 6.249999999999998200, 6.250000000000001800, -3.000000000000000000 ) ) ;
#237 = CARTESIAN_POINT ( 'NONE',  ( 6.249999999999998200, -6.249999999999998200, 3.000000000000000000 ) ) ;
ENDSEC;
END-ISO-10303-21;
